Tool - Eon Blue Apocalyps3e Chords & Tabs

 

Eon Blue Apocalyps3e Chords & Tabs

Tool Chords & Tabs

Version: 1 Type: Tab 2 ratings
1 star 2 stars 3 stars 4 stars 5 stars
comments

Eon Blue Apocalyps3e Tab

Artist: Tool
Song: Eon Blue Apocalypse
Tabber: Josh (redreaper07@hotmail.com)
Tuning: DADGBE

This is a very short song but Riff 2 is the best guitar riff I have ever heard, so I spent about a half our tabbing this song out.

Riff 1
e[-----]
B[-----]
G[-----] Guitar 1 tremolo this note near the bridge for about 35 seconds, use
D[--0--] a volume fade at the beginning and slow down at about 31 seconds
A[-----]
D[-----]

I'm pretty sure this riff uses an octave pedal, I'm not sure though.
Listen carefuly and decide for yourself

e[---------------------------------]
B[---------------------------------]
G[---------------------------------]
D[---------------3-----------------] Guitar 2, comes in about 0:06
A[--3-5--3-5-------3-5--3-5--------]
D[-----------3-5------------3-5-0--]
[ Tab from: http://www.guitartabs.cc/tabs/t/tool/eon_blue_apocalyps3e_tab.html ]
Riff 2 - Use Delay and Reverb for the right effect
e[-------------------------------------------------]
B[-------------------------------------------------]
G[----------------------------------------------0--]
D[--8p7h8-7---3/5h6/7-3-----8p7h8-7---3/5h6/7-5----]
A[-------------------------------------------------]
D[-----------------------0-------------------------]
                         ^let this note ring for the rest of the song (not kidding)

Riff 3
e[----------------------------]
B[-------------------------3--]
G[----0-------0------------2--]
D[--1---1-0-1---1-0-1------0--]
A[--------------------1-0--0--]
D[-------------------------0--]

Any questions or comments please email me. If you feel that this tab is not correct,
please submit corrections so everyone knows how to play it right.
Comments