Tool - Enema Chords & Tabs

 

Enema Chords & Tabs

Tool Chords & Tabs

Version: 1 Type: Tab 0 ratings
1 star 2 stars 3 stars 4 stars 5 stars
comments

Enema Tab

TOOL - ├ćNIMA
Track 13 - ├ćNEMA
Tuning: Standard Drop D
Effects: Flanger, Distortion, Wah

Unless noted otherwise:
() - effect
/\ - slide up/down
pm - palm mute
h  - hammer on
p  - pull off

Medium Distortion
G-------0-------------|----------------------|
D-------0-------------|----------------------| x4
A-2p0h2-0h2p0-2p0-2---|--2p0h2-5p2p0-2p0-2---| 
D-2p0h2-0h2p0-2p0-2---|--2p0h2-5p2p0-2p0-2---|

Verse 1
  x4          x4 
G-----------|-----------|
D-----2-----|-----5-----| x2
A-2-2-2-2---|-5-5-5-5---|
D-2-2---2---|-5-5---5---|
pm......................

Pre Chorus
  x4          x4
G-----------|-----------|
D-----------|-----------|
A-2-2-0h2---|-5-5-0h5---|
D-2-2-0h2---|-5-5-0h5---|
pm......................
  x4          x4
G-----------|-----------|
D-----2-----|-----5-----| 
A-2-2-2-2---|-5-5-5-5---|
D-2-2---2---|-5-5---5---|
pm.......................
  x1
G---------|
D-555-0---|
A-555-0---|
D-555-0---|
release pm

Chorus
  x1
G---------------------------------------|
D-2-2-------2-2-------2-2-------555-0---|
A-2-2-------2-2-------2-2-------555-0---|
D-2-2-x-x-x-2-2-x-x-x-2-2-x-x-x-555-0---|
  x1
G---------------------------------------|
D-2-2-------2-2-------2-2-------333-0---|
A-2-2-------2-2-------2-2-------333-0---|
D-2-2-x-x-x-2-2-x-x-x-2-2-x-x-x-333-0---|
  x1
G---------------------------------------|
D-2-2-------2-2-------2-2-------555-0---|
A-2-2-------2-2-------2-2-------555-0---|
D-2-2-x-x-x-2-2-x-x-x-2-2-x-x-x-555-0---|

G---------------------------------------|
D-2-2-------2-2-------2-2-------10-12---|
A-2-2-------2-2-------2-2-------10-12---|
D-2-2-x-x-x-2-2-x-x-x-2-2-x-x-x-10-12---|

Slide and hammer-on without picking
G-----------------------|
D-0(2)/(5)p0(2)/(5)p0---|
A-0(2)/(5)p0(2)/(5)p0---|
D-0(2)/(5)p0(2)/(5)p0---|

*Repeat Verse 1 x2
*Repeat Pre Chorus x1
*Repeat Chorus 1x

G--------------------------------------------|
D-2-2-222-10-10-10-12--0-0-000-10-10-10-12---| x2
A-2-2-222-10-10-10-12--0-0-000-10-10-10-12---|
D-2-2-222-10-10-10-12--0-0-000-10-10-10-12---|

B-------------------------------13-13-13-15---|
G-------------------------------12-12-12-14---|
D-2-2-222-10-10-10-12--0-0-000--10-10-10-12---|
A-2-2-222-10-10-10-12--0-0-000----------------|
D-2-2-222-10-10-10-12--0-0-000----------------|

                        (clean)
B-15-15-13-15-13--------------------|
G-14-14-12-14-12--------------------|
D-12-12-10-12-10--2-----(2)---(2)---|(wah and flange)
A-----------------2-----------------|
D-----------------2-----------------|

G------------------------------------------------------|
D-(9)---(7)---(10)---(9)--(9)---(7)---(5)---(4)--(0)---|
A------------------------------------------------------|
D------------------------------------------------------|

Distortion
G-------------------------------|
D-2----------2/5----------5\2---|
A-2----------2/5----------5\2---|
D-2----------2/5----------5\2---|

G----------------------------------|
D-2/5--------5\2------2---2/5--5---|
A-2/5--------5\2------2---2/5------|
D-2/5--------5\2------2---2/5------|

Solo (slide guitar)
G--------------9--------9--------9--------9---|
D--------7/9-9----7/9-9----7/9-9----7/9-9-----|
A---------------------------------------------|
D--10/12--------------------------------------|

B-------------------------12\---|
G-------------12----12----------|
D-12--12------12-------12-------|
A----------------12-------------|
D-------------------------------|
[ Tab from: http://www.guitartabs.cc/tabs/t/tool/enema_tab.html ]
E------------------------------------------------------------/12-|
B----------------------------------------12--/12-/12-/12-/12-/12-|
G-------9--------9--9------12---14-------12--/12-/12-/12-/12-----|
D-7/9-9----7/9-9-------9---12--------12--12--/12-/12-/12-/12-----|
A----------------------------------------------------------------|
D----------------------------------------------------------------|

(without slide)
  x7
G---------|--------------|
D-222-222-|-222--/--55---|
A-222-222-|-222--/--55---|
D-222-222-|-222--/--55---|
pm.......................



  x7
G---------|--------------|
D-222-222-|-222--/--55---|
A-222-222-|-222--/--55---|
D-222-222-|-222--/--55---|
pm.......................



  x7
G---------|--------------|
D-222-222-|-222--/--55---|
A-222-222-|-222--/--55---|
D-222-222-|-222--/--55---|
pm.......................

B-888-888-888-888-888-888-888-88\20---|
G-777-777-777-777-777-777-777-77\19---|
D-555-555-555-555-555-555-555-55\17---|
A-555-555-555-555-555-555-555-55\17---|
D-------------------------------------|

B-20-20-20--20-20-20--20-20-20--20-20-20---|
G-19-19-19--19-19-19--19-19-19--19-19-19---|
D-17-17-17--17-17-17--17-17-17--17-17-17---|
A-17-17-17--17-17-17--17-17-17--17-17-17---|
D------------------------------------------|

B-888-888/20-20-20--20-20-20---|
G-777-777/19-19-19--19-19-19---|
D-555-555/17-17-17--17-17-17---|
A-555-555/17-17-17--17-17-17---|
D------------------------------|

B-555-555/17-17-17--17-17-17---|
G-444-444/16-16-16--16-16-16---| x4
D-222-222/14-14-14--14-14-14---|
A-222-222/14-14-14--14-14-14---|
D------------------------------|

(flange) light strumming
B-8------------8--------8--8-----------------|
G-7---------7----7------7----7---------------|
D-5---------5------5----5------5---5---------|
A-5---------5-----------5----------5--5\14---|
D-5---------------------5----------5---------|

G---------------------------------------------------|
D---------------------------------------------------|
A-14---14-14-14--14--14/12--12---12-12-12--12--12---|
D---------------------------------------------------|

G----------------------------------------------|
D----------------------------------------------|
A-15---15-15-15--15--15-14--14--14--14h15p14---|
D----------------------------------------------|

G-------------------------------------------------|
D-------------------------------------------------|
A-14---14-14-14--14--14--14\12--12-12-12--12-12---|
D-------------------------------------------------|

G--------------------------------|
D--------------------------------|
A-10---10-10-10--10--10--10--9---|
D--------------------------------|

(flange off)
B---------------------------12--------------12--------|
G---------------------------11--------------11--------|
D-2---0---5---0--0/9--9-9-9-9--0000/9--9-9-9-9--000---| x2
A-2---0---5---0--0/9--9-9-9-9--0000/9--9-9-9-9--000---|
D-2---0---5---0--0/9--9-9-9-9--0000/9--9-9-9-9--000---|

B---------------------------12---|
G---------------------------11---|
D-2---0---5---0--0/9--9-9-9-9----|
A-2---0---5---0--0/9--9-9-9-9----|
D-2---0---5---0--0/9--9-9-9-9----|

B----------------12---|
G----------------11---| x3
D-0000-/9--9-9-9-9----|
A-0000-/9--9-9-9-9----|
D-0000-/9--9-9-9-9----|

  x11
B-12--12--12---|--12---|
G-11--11--11---|--11---|
D-9---9---9----|--9----|
A-9---9---9----|--9----|
D-9---9---9----|--9----|


This song takes practice to get the triplet timing down,
but it's a great song,and the main riffs are good if 
you're just starting on guitar
Comments