Tool - Disposition Chords & Tabs

 

Disposition Chords & Tabs

Tool Chords & Tabs

Version: 2 Type: Tab 0 ratings
1 star 2 stars 3 stars 4 stars 5 stars
comments

Disposition Tab

   
Tool
"Disposition"
Lateralus
Tabbed by Joey
Email: JGuy4@aol.com

Tuning: Drop D
=harmonics
/=slide
b=bend
p=pull-off
h=hammer on
PM=palm mute
	Ok kids i spent a whole lotta time on this and it sounds real good.
 Dont expect it to be 100% correct because it didnt come out of a book, but its real close to perfect.
 I put guidelines and crap on this because its hard to follow. If you wanna learn to play it like i know it,
 you'd better put some effort into it because this is a really complex song.
 This is as accuarate as it gets you guys, it'll work good for some of you tool cover bands.

Guitar I, Riff 1, 0:00-1:05
e|----0--------------3----------------0-------------------------------------
b|------3--------------------------------3----------------------------------
g|---------------2-----------------------------------2----------------------
d|--------------------------------------------------------------------------
a|----------------------------------------------------------------9--9------
E|-2-------2--2---------0-0-------2----------2--2---------2/9--9-----9------
[ Tab from: http://www.guitartabs.cc/tabs/t/tool/disposition_tab_ver_2.html ]
Guitar II, Riff 2, 0:22-1:24
               VVVVV only play that measure after finishing this whole riff
e|----------|-------------|-----------------|-------------------
b|-------|----------|--------------|-------------
g|----------|----------|----------|----------------
d|----------|----------|--------------|----------------
a|-------|----------|--------------|----------------
E|----------|-------------|-----------------|-------------------

Guitar III, Riff 3, 0:22 (play the d|-2-'s with the a|--'s in Riff 2!!!)
e|------------------------------------------|-------------------
b|------------------------------------------|-------------------
g|------------------------------------------|-------------------
d|--2----------2------------2---------------|---2----4---4h5p4--
a|------------------------------------------|-------------------
E|------------------------------------------|-------------------

Guitar IV, Riff 4, 0:46, 0:58, 1:08, and 1:19
			VVVV play that measure the last time this riff is played
e|---5--------2--2--|-----------
b|------------------|-3--5--3---
g|------------------|-----------
d|------------------|-----------
a|------------------|-----------
E|------------------|-----------

Guitar II, Riff 5, 0:52, 1:02, 1:13
e|---------0---
b|---------7---
g|----11--11---
d|-------------
a|-9-----------
E|-------------

Guitar I, Riff 6, 1:24-2:27, 3:13-end of song
	******this is played alot in the song, don't miss it!******
e|-----|---------
b|-----|---------
g|-9---|-7b(9)---  >>>>>email to JGuy4@aol.com
Comments