Tool - Disposition Chords & Tabs

 

Disposition Chords & Tabs

Tool Chords & Tabs

Version: 1 Type: Tab 0 ratings
1 star 2 stars 3 stars 4 stars 5 stars
comments

Disposition Tab

Tool - Disposition
Tabbed by: zteam_cody@hotmail.com

() harmonics
\ slide
^ bend

Intro                                                                         0:43
e-----------------------------------------------------------------------------------
b----------------------------------------------------------(7)----------------------
g-------------------------(7)---------(7)------------(7)----------------------------
d-------------(9)------(9)---------(9)---(7)------(9)---(7)-------------------------
a----(7)---(7)------(7)---------(7)------------(7)----------------------------------
d-----------------------------------------------------------------------------------
[ Tab from: http://www.guitartabs.cc/tabs/t/tool/disposition_tab.html ]
(First figure)  play 3x                      play first figure 3x             1:23
e-------------------------.----------------.                     .------------------
b-------------------------.----------------.                     .------------------
g-------(7)--------11-11--.--7-9-----11-11-.                     .---7-9-7----------
d----(9)---(7)-(9)--9--9--.--------9-------.                     .------------------
a-(7)---------------------.----------------.                     .------------------
d-------------------------.----------------.                     .------------------

(Second Figure) play 6x   play twice  1:41  play second figure 3x             1:53
e----------------------.------------------.                      .------------------
b----------------------.------------------.                      .------------------
g---9--9\11--\14\9-----.---9\11\9\11\9----.                      .----9-9-11\9------
d----------------------.------------------.                      .------------------
a----------------------.------------------.                      .------------------
d----------------------.------------------.                      .------------------

This is all I have tabbed so far... Any corrections please let me know 
Comments