Tool - Alone Chords & Tabs

 

Alone Chords & Tabs

Tool Chords & Tabs

Version: 2 Type: Tab 0 ratings
1 star 2 stars 3 stars 4 stars 5 stars
comments

Alone Tab

   
#----------------------------------PLEASE NOTE--------------------------------#
#This file is the author's own work and represents their interpretation of the#
#song. You may only use this file for private study, scholarship, or research.#
#-----------------------------------------------------------------------------#
#-- File created with Instab - http://www.pconline.com/~smcarey/instab.html --#
#-----------------------------------------------------------------------------#

Author/Artist: Tool & Creed
Title: Alone
Transcribed by: Andrew Biles

This riff is basically played throughout the whole song,
and then the solo below comes in around 2 minutes through.
Obviously you're gonna have to work out the strumming from this
[ Tab from: http://www.guitartabs.cc/tabs/t/tool/alone_tab_ver_2.html ]
 Em    G    A    C   Em    G   D/F#  G
|-0----3----0----0----0----3----2----3-
|-0----3----2----1----0----3----3----3-
|-0----0----2----0----0----0----2----0-
|-2----0----2----2----2----0----0----0-
|-2----2----0----3----2----2----x----2-
|-0----3--------------0----3----2----3-


Here's the solo which basically just uses the A Pentatonic scale,
so it's not too hard

|---------------------------------------------------------------------------
|---------------------------------------------------------------------------
|-----------------------------5-7^-7-7^p5-----------------------------------
|-7^----^7-7-5-7-5-----5------------------7p5-5-----5-7-7^-7-5---7-5--------
|------------------7-------7----------------------7------------------7-7^-5-
|---------------------------------------------------------------------------
                                                                              
----------------------------|
----------------------------|
----------------------------|
----------------------------|
-5-7-5----------------------|
-------7--5--3----2-2-2-2-3-|

Oh yeah, I wasn't totally sure if it was actually by Tool & Creed,
that's just what I had it downloaded as.  Hopefully it is by them though.
and enjoy.
Comments