Tool - Aenima Chords & Tabs

 

Aenima Chords & Tabs

Tool Chords & Tabs

Version: 5 Type: Tab 0 ratings
1 star 2 stars 3 stars 4 stars 5 stars
comments

Aenima Tab

   
I TAKE CREDIT FOR NONE OF THESE TABS, I MERELY THREW THEM TOGETHER AS THE WHOLE
AEnima ALBUM. All tabs seen here were already previously submitted tabs. None of
them are mine, so dont get angry because you saw your tab here.

1. Stinkfist
2. Eulogy
3. H
4. Useful Idiot (no guitar)
5. Forty Six and Two
6. Message to Harry Manback
7. Hooker with a Penis
8. Intermission (all synth)
9. Jimmy
10. Die Eier Von Satan
11. Pushit
12. Cesaro Summability (no guitar)
13. AEnima
14. Ions (no guitar)
15. Third Eye

_____________________________________________________________________________
Stinkfist Tab by Tool, www.Ultimate-Guitar.Com

Group: Tool
Album: Aenima
Song:  Stinkfist

(intro-electric drums)
-Feedback

|-------------|
|-------------|
|----(14)---/-|
|----(14)---/-|
|----(14)---/-|
|----(14)---/-|
(increase volume knob untill feedback kicks in)

(wait for EXACTLY four bars (4/4 time), then slide down
and begin the intro)

|-----------------------| Chorus
|-----------------------|
|-----------------------|
|--2-2--5-5-----------5-|
|--2-2--5-5---2-2-2-2-5-|
|--2-2--------2-2-2-2---|

|------------------------| Riff
|------------------------|
|------------------------|
|------------------------|
|---------5----------5---|
|--2--2-22----2--2-22----|
.........P.M.............

|-----------------------| Chorus (same as intro)
|-----------------------|
|-----------------------|
|--2-2--5-5-----------5-|
|--2-2--5-5---2-2-2-2-5-|
|--2-2--------2-2-2-2---|

|--------------------------------------|
|--------------------------------------|
|--------------------------------------|
|--2-2-XX-10-10------------------------|
|--2-2-XX-10-10--(0)-12-(0)-xx--2-3-2--|
|--2-2----10-10--(0)-12-(0)-xx--2-3-2--|


|----------------------------|
|--------------3^-hold note--|
|--------5-5-X-2-------------|
|--2-2-X-5-5-X-0-------------|
|--2-2-X-3-3-X-0-------------|
|--2-2-X-------0-------------|

(repeat chorus)

|----------------------------------|
|(10)---(6)(6)---(8)---(3)---------|
|-(9)---(5)(5)---(7)---(2)---------|
|--7-----3--3-----5-----0----------|
|--7-----3--3-----5-----0----------|
|--7-----3--3-----5-----0----------|

(increase volume knob for feedback)
(pickscrape up the fingerboard keeping the open chord)

-Solo

|-----------------------------------------------------------|
|-----------------------------------------------------------|
|----9--9--9--9--9--9--9--9--9--9--9--9--9--9--9--9---------|
|--12-12-12-12-12-12-12-12-12-12-12-12-12-12-12-12-12-2-----|
|-----------------------------------------------------2-----|
|-----------------------------------------------------2-----|

|-----------------------------0-0-0-0-0-0-0-0-0-0-0-0-0-0---|
|-----------------------------5-6-6p5-6p5-6p5-6p5-6p5h6p5---|
|----9--9--9--9--9--9--9--9---------------------------------|
|--12-12-12-12-12-12-12-12-12-------------------------------|
|-----------------------------------------------------------|
|-----------------------------------------------------------|

|-------------------------------------------------------------|
|-------------------------------------------------------------|
|----8--8--8--8--8--8--8--8--8--8--8--8--8--8--8--8-----------|
|--12-12-12-12-12-12-12-12-12-12-12-12-12-12-12-12-12-22222---|
|-----------------------------------------------------22222---|
|-----------------------------------------------------22222---|
						     palm mute

|----------------------------------------------|
|----------------------------------------------|
|--9-9-9-9-11-9-9-9-9----9-9-9-9-11-9-9-9-9----|
|--9-9-9-9-11-9-9-9-9-0--9-9-9-9-11-9-9-9-9-0--|
|--7-7-7-7-9--7-7-7-7-0--7-7-7-7-9--7-7-7-7-0--|
|---------------------0---------------------0--|

|----------------------------------------------|
|----------------------------------------------|
|----------------------------------------------|
|--00-00-0--00-00-0-00-00-0-0------------------|
|--22-22-0--22-22-0-22-22-0-0------------------|
|--00-00-0--00-00-0-00-00-0-0------------------|

|-------------------------|---------------------|
|-------------------------|---------------------|
|-------------------------|---------------------|
|--12-12/14-14-7-2-2-2-2--|--12-12/14-14-9-7----|
|--10-10/12-12-5-2-2-2-2--|--10-10/12-12-7-5----|
|--10-10/12-12-5-2-2-2-2--|--10-10/12-12-7-5----|

|------------------------------|
|--5----5----5----8-8-10-10-7--|
|--4----4----4----7-7-9--9--6--|
|--2-XX-2-XX-2-XX-5-5-7--7--4--|
|--2-XX-2-XX-2-XX-5-5-7--7--4--|
|--2-XX-2-XX-2-XX-5-5-7--7--4--|

|--------------------------------------|
|--------------------------------------|
|--------------------------------------|
|--2-2-XX-10-10------------------------|
|--2-2-XX-10-10--(0)-12-(0)-xx--2-3-2--|
|--2-2----10-10--(0)-12-(0)-xx--2-3-2--|

|---------------------|
|------------------3--|
|------------------2--|
|--2-2-XX-10-10-------|
|--2-2-XX-10-10--0----|
|--2-2----10-10--0----|

_____________________________________________________________________________
2. Eulogy
----------
> From: rolblade
> To: guitar@olga.net
> Subject: TAB: Tool; Eulogy
> Date: April 5, 1997 10:44 PM
>
> Dropped D Tuning
>
> Dropped D Tuning
>
>
> / above number-bend       PM-palm mute
>
> All figures are written out only once (no repeats written)
>
>
>
>
>  RHYTHM FIG.1                        FIG. 2
>
>        PM                          PM====================
> EI-------------             EI------------------------------------------

>
> BI-------------             BI-------------------------------------------|
> GI-------------             GI-------------------------------------------|
> DI----2---2---             DI--------------------------------------------|
> AI----2---2---             AI--------------------------------------------|
> EI----2---2---              EI^×2-2-2-2---2-2-2-2---0-2-3-2-0-0----------|
>
>  FIG. 3 first time                              FIG.3   second time
>
>      PM=============
> EI-------------------------             --------------------------------

>
> BI-------------------------             --------------------------------|
> GI-------------------------             --------------------------------|
> DI---2-2-2-2----2-2-2-2            2-2-2-2^×2-2-2-2^×2-3-0--------------|
> AI---2-2-2-2----2-2-2-2            2-2-2-2^×2-2-2-2^×2-3-0--------------|
> EI^×2-2-2-2----2-2-2-2            2-2-2-2^×2-2-2-2^×2-3-0---------------|
>
>                       FIG.4
> EI--------------------------------------------------------------|
> BI--------------------------------------------------------------|
> GI--------------------------------------------------------------|
> DI---7---9----0^×2-2---0-2-2-0-0-2-2---5-5-5-5-5--9-------------|
> AI---7---9----0^×2-2---0-2-2-0-0-2-2---5-5-5-5-5--9-------------|
> EI---7---9----0^×2-2^×0-2-2-0-0-2-2---5-5-5-5-5^×9--------------|
>
>
> EI-------------------------------------------------|
> BI-------------------------------------------------|
> GI-------------------------------------------------|
> DI0^×2-2---0-2-2-0-0-2-2---7-7-7-7-7--9------------|
> AI0^×2-2---0-2-2-0-0-2-2---7-7-7-7-7--9------------|
> EI0^×2-2^×0-2-2-0-0-2-2---7-7-7-7-7^×9-------------|
>
>        FIG.5
> EI----------------|
> BI----------------|
> GI----------------|
> DI-5^×9^×7--9-----|
> AI-5^×9^×7--9-----|
> EI-5^×9^×7^×9
>
>            FIG.6
> EI-------------------------------|
> BI-------------------------------|
> GI--------------5----------------|
> DI^×0-2-2-0--5-5^×5-5-6-0--------|
> AI^×0-2-2-0--3-5^×5-5-6-0--------|
> EI^×0-2-2-0----5^×5-5-6-0--------|
>
>        FIG.7
> EI--------2----|
> BI-----0-------|
> GI-------------|
> DI^×2----------|
> AI-------------|
> EI-------------|
>
>         FIG.8
>
> EI------------------------------|
> BI------------------------------|
> GI------------------------------|
> DI^×0-2---0---3--0-5^×0-1-------|
> AI^×0-2---0---3^×0-5^×0-1-------|
> EI^×0-2---0---3^×0-5^×0-1-------|
>
>         FIG.9
> EI-------------------|
> BI-------------------|
> GI---4----4^×5-------|
> DI^×4----4^×5--5-----|
> AI^×2----2^×3--5-----|
> EI----------------5--|
>
>       FIG.10
> EI----------------------|
> BI----------------------|
> GI-------/------/-------|
> DI-------4-----5^×4-----|
> AI-----2-----0-------5--|
> EI^×2-----0-------------|
>
>     FIG.11
> EI-----------|
> BI-----------|
> GI-----------|
> DI-2-2-2-2---|
> AI-2-2-2-2---|
> EI-2-2-2-2---|
>
>
_____________________________________________________________________________
3. H
---------------
H Tab by Tool, www.Ultimate-Guitar.Com

I was kind of surprised no one had tabbed "H" for guitar. Personally, it's one
of my favorite Tool songs, and all around one of my favorite songs period. Anyway,
I'm not going to name effects or anything, and the intro's more likely then not bass,
but if your guitar's distorted enough, it sounds perfect. I tabbed all but the breakdown
And if anyone knows it, I'd appreciate if they sent it to me. Any comments or additions?
Send them to DreamWthnADreamX@aol.com or IM me. Later

A-----0---------0------------0---------0---------|
D--0-----3~--0-----3--5~--0-----3~--0-----0--5~--|

B--3----3---x-x-3----3--|
G--2----2---x-x-2----2--|
D--0----0---x-x-0----0--|
A--0----0---x-x-0----0--|
D--0----0---x-x-0----0--|

G---------5-----5h7p5-------------5-5-5/4-0--|
D----7-------7--------7-----7----------------|
A------8----------------------8--------------|
D--0----------------------0------------------|

D--7~---7--5--7/8-7~--7--5------------------5----|
A---------------------------7--5----3h5p3-3---3--|

D----7----5----------|
A------8----7--3-5---|
D--0-----------------|
pm-------------------|

D-----7-----5------7-----5----7------|
A-------8---5--------8---5--5---8~---|
D--0--------5---0--------5-----------|
pm-------|    |----------------------|

D--0--7-3--5~---0--7-3--5--5--0--7-3--5--|
A--0--7-3--5~---0--7-3--5--5--0--7-3--5--|
D--0--7-3--5~---0--7-3--5--5--0--7-3--5--|

(high)D--7~---7--5---7--5---0-3~--
_____________________________________________________________________________
4. Useful Idiot (no guitar)
_____________________________________________________________________________
5. Forty Six and Two
-------
46 And 2 Tab by Tool, www.Ultimate-Guitar.Com

----------------------------------------------------------------------
			     46 & 2 - Tool
----------------------------------------------------------------------

      h - hammer on
      p - pull off
      b - bend string
      / - slide up
      \ - slide down
      x - muted, struck string
      p.m. - palm mute
      p.h. - pinch harmonic

  Intro: Bass arranged for guitar: (use chorus or flanger)
G|--------------------------------------------------------------------|
D|-----------------------------(3X)-------------------5p4-------------|
A|---5---3h5---6p5---3h5---1h3--------5---3h5---6p5---------6p5-------|
D|-0---0-----0-----0-----0----------0---0-----0-----0-----0-----------|

e|---------------------------------------------------------------------|
B|---------------------------------------------------------------------|
G|---------------------------------------------------------------------|
D|---------------------------------------------------------------------|
A|-5--3--6-----5--3--6---1---------------------------------------------|
D|---------------------------------------------------------------------|
  p.m.-----------------------------------------------------------------|

e|--------------------------------------------------------------------|
B|--------------------------------------------------------------------|
G|--------------------------------------------------------------------|
D|--------------------------------------------------------------------|
A|-5--3--6p5---5--3--6p5---5--3--6p5---5--3--6p5---1h3----------------|
D|-----------------------------------------------0--------------------|

e|--------------------------------------------------------------------|
B|--------------------------------------------------------------------|
G|--------------------------------------------------------------------|
D|-0-----------h3---p0----------12-------10------10-0--5p4------------|
A|-0-let ring--h3---p0----10-12----10-12----8-10----0------3h5--------|
D|-0-----------h3---p0------------------------------0-----------------|

e|------------------|--------------------------------|
B|------------------|--------------------------------|
G|-7--------------7-|-----7-------5-------5-------7--|
D|-7------0---------|-5-7-----5-7-----3-5-----5-7----|
A|-5------0---------|--------------------------------|
D|--------0---------|--------------------------------|
  let ring-------------------------------------------|  p.m.    p.m.    p.m.    p.m.

e|--------------------------------------------------------------------|
B|--------------------------------------------------------------------|
G|--------------------------------------------------------------------|
D|--------------------------------------------------------------------|
A|--------------------------------------(4X)--------------------------|
D|-0-12-0-10h12-0-13p12-0-10h12---8h10--------------------------------|
  there's a part before this that's hard to hear, i think its played on
the B and e strings, listen carefully and see if you can get it

e|--------------------------------------------------------------------|
B|--------------------------------------------------------------------|
G|--------------------------------------------------------------------|
D|-0-12-0-10h12-0-13p12-0-10h12-0-8h10------0--0-0-0------------------|
A|-0-12-0-10h12-0-13p12-0-10h12-0-8h10-(3x)-0--0-0-0------------------|
D|-0-12-0-10h12-0-13p12-0-10h12-0-8h10------0--0-0-0------------------|

e|--------------------------------------------------------------------|
B|--------------------------------------------------------------------|
G|--------------------------------------------------------------------|
D|--------------------------------------------------------------------|
A|-------------------------------(4X)---------------------------------|
D|-12-10-13p12--12-10-13p12-8h10--------------------------------------|

e|---------------------------------------------------------------------|
B|---------------------------------------------------------------------|
G|---------------------------------------------------------------------|
D|---------------------------------------------------------------------|
A|-------------------------------(4X)----------------------------------|
D|-12-10-13p12--12-10-13p12-8h10---------------------------------------|
  p.m.-----------------------------------------------------------------|

e|---------------------|
B|---------------------|
G|---------------------|
D|---------------(8X)--|
A|-5-3-6--5-3-6--------|
D|---------------------|
  p.m.-----------------|      near the end let up on the p.m.

e|--------------------------------------------------------------------|
B|--------------------------------------------------------------------|
G|--------------------------------------------------------------------|
D|--------------------------------------------------------------------|
A|--------------------------------------(4X)--------------------------|
D|-0-12-0-10h12-0-13p12-0-10h12---8h10--------------------------------|

e|--------------------------------------------------------------------|
B|--------------------------------------------------------------------|
G|--------------------------------------------------------------------|
D|-0-12-0-10h12-0-13p12-0-10h12-0-8h10------0--0-0-0------------------|
A|-0-12-0-10h12-0-13p12-0-10h12-0-8h10-(3x)-0--0-0-0------------------|
D|-0-12-0-10h12-0-13p12-0-10h12-0-8h10------0--0-0-0------------------|

e|--------------------------------------------------------------------|
B|--------------------------------------------------------------------|
G|--------------------------------------------------------------------|
D|--------------------------------------------------------------------|
A|----------------------------(4X)------------------------------------|
D|-5h7-00-3h5-0-5h7-0-3p0-3h5-----------------------------------------|
   on the fourth one adam uses slight pinch harmonics

e|-0000000000000000000000000000000000000000000000000000000------------|
B|-0000000000000000000000000000000000000000000000000000000------------|
G|-7************10************9************8**************------------|
D|--------------------------------------------------------------------|
A|--------------------------------------------------------------------|
D|--------------------------------------------------------------------|
   * this just means to pick that note continuously

e|--------------------------------------------------------------------|
B|--------------------------------------------------------------------|
G|--------------------------------------------------------------------|
D|-0-00-5p3-0-3--0----------------------------------------------------|
A|-0-00-5p3-0-3--0-3p0-3h5-6p5----------------------------------------|
D|-0-00-5p3-0-3--0----------------------------------------------------|
     pm             (i'm really just guessing on this part)

e|--------------------------------------------------------------------|
B|--------------------------------------------------------------------|
G|--------------------------------------------------------------------|
D|--------------------------------------------------------------------|
A|-------------(4X)-(rest)-(4X)-(rest)-(4X)---------------------------|
D|-12-10-13p12--------------------------------------------------------|

e|---------------------------------------------------------------------|
B|---------------------------------------------------------------------|
G|--------------------------------------------------(4X)---------------|(3X)
D|--------------------------------------12-10-13p12------12-10-13------|
A|---------------------------------(6X)--------------------------------|
D|5*\\\\\\\\\\\\\\\2*--12-10-13p12-------------------------------------|
  *natural harmonics on open D, also use a wah pedal

e|--------------------|
B|--------------------|
G|--------------------|
D|--------------------|
A|-------------(16X)--|
D|-12-10-13p12--------|
  p.h.----------------| and continue to use wah

e|--------------------------------------------------------------------|
B|-------------------------------------play this fourth time----------|
G|--------------------------------(3X)--------------5-----------------|
D|-12-10-13p12--12-10-13p12--8h10----12-10-13p12--3-5-0-1-------------|
A|-12-10-13p12--12-10-13p12--8h10----12-10-13p12--3-3-0-1-------------|
D|-12-10-13p12--12-10-13p12--8h10----12-10-13p12--3---0-1-------------|

e|--------------------------------------------------------------------|
B|--------------------------------------------------------------------|
G|-------------------------------------(3X)---------------------------|
D|-0-12-0-10h12-0-13p12-0-10h12-0-8h10--------------------------------|
A|-0-12-0-10h12-0-13p12-0-10h12-0-8h10--------------------------------|
D|-0-12-0-10h12-0-13p12-0-10h12-0-8h10--------------------------------|

e|--------------------------------------------------------------------|
B|--------------------------------------------------------------------|
G|--------------------------------------------------------------------|
D|-0--0-0-0-0-0--0-0-0-0-0--0-0-0-0-0--0-0-0--------------------------|
A|-0--0-0-0-0-0--0-0-0-0-0--0-0-0-0-0--0-0-0--------------------------|
D|-0--0-0-0-0-0--0-0-0-0-0--0-0-0-0-0--0-0-0--------------------------|

it's not perfect, but its a starting point for learners, and its better than some
of those other tabs that say they're 100% correct, anyway, i hope this helps.
_____________________________________________________________________________
6. Message to Harry Manback
---
Message To Harry Manback Tab by Tool, www.Ultimate-Guitar.Com

Message to Harry Manback
Tool
Tuning: Drop D

   |   |   |   |   |   |   |   |   |   |   |   |   |   |    |   |   |   |
E|-----------------------------------------------------87------------|
B|-----7-8---7-8-7-----8-7---8-7-------7-8---7-8-7-------10-8-7------|
G|-9-------------------------------9----------------------------9-7--|
D|---9---------------------0---------9-------------------------------|
A|-7-------------------------------7------------------------0--------|
D|-----------------10------------------------------10----------------|

Repeat this for a while then play:
(these are the notes on the piano, a couple are impossible to reach
on the guitar but i put them here anyway, use octaves or something)

   |   |   |   |   |   |   |   |   |   |   |   |   |   |   |   |
E|-------9-----9---10----9---------------9-----9---10----9---------|
B|-----9-----9-------------------------9-----9---------------------|
G|-4-------------------------------4-------------------------------|
D|-----------------------------------------------------------------|
A|-----------------------------------------------------------------|
D|-1---------------2---------------5---------------2---------------|

   |   |   |   |   |   |    |   |   |   |
E|-8-------------------98----------------|
B|-----------------------10-8-7----------|
G|------------------------------9-7-9----|
D|----------------------------------9----|
A|-0------------------------5-------7----|
D|-----------------9---------------------|
_____________________________________________________________________________
7. Hooker With a Penis
-------
Hooker With A Penis Tab by Tool, www.Ultimate-Guitar.Com

Artist: Tool
Track: Hooker With A Penis
Album: Aenima
tuning: Drop D (DADGBE)
tabbed by: James Jarvis (canajun_eh2003@hotmail.com)


nh - natural harmonic
 ph - pinch harmonic
 pm - palm mute
 x - muted string
 h - hammer on
 p - pull off
 \\ - slide down
 // - slide up
 b - bend
 ~~ - vibrato
 <7> - natural harmonic
 x/// - pick scrape (directions same as slide)

(heavy distortion with wah open)

*slow tempo*

e---------------------------------------------|
b---------------------------------------------|
g---------------------------------------------|
d---------------------------------------------|
a---------------------------------------------|
d--12-12-12-10-10-10-12b--12-12-10-10-12-12---|

(wah off)

e---------------------------------------------|
b---------------------------------------------|
g---------------------------------------------|
d--12-12-12-10-10-10-12b--12-12-10-10-12-12---| x2
a--12-12-12-10-10-10-12b--12-12-10-10-12-12---|
d--12-12-12-10-10-10-12b--12-12-10-10-12-12---|

*fast tempo*

e-------------------------------------------------|
b-------------------------------------------------|
g-------------------------------------------------|
d--10h12-12--10h12-12--10h12-12--10h12-10--10-10--| x4
a--10h12-12--10h12-12--10h12-12--10h12-10--10-10--|
d--10h12-12--10h12-12--10h12-12--10h12-10--10-10--|

e------------------------------------------------|
b------------------------------------------------|
g--7-7-7-7-7-7-7-7-7--9-9--5-5-5-5-5-5-5-5-5--9--|
d------------------------------------------------|
a--5-5-5-5-5-5-5-5-5--7-7--3-3-3-3-3-3-3-3-3--7--|
d------------------------------------------------|

e--------------------------------------------------------|
b--------------------------------------------------------|
g--7-7-7-7-7-7-7-7-7--9-9--17-17-17-17-17b17b17b17b17b---|
d--------------------------------------------------------|
a--5-5-5-5-5-5-5-5-5--7-7--15-15-15-15-15b15b15b15b15b---|
d--------------------------------------------------------|

e--------------|
b--------------|
g--------------|
d--------------| x16
a--------------|
d--3p0--0--3---|
  pm - - - -|

e-------------------------------------------------|
b-------------------------------------------------|
g-------------------------------------------------|
d--10h12-12--10h12-12--10h12-12--10h12-10--10-10--| x4
a--10h12-12--10h12-12--10h12-12--10h12-10--10-10--|
d--10h12-12--10h12-12--10h12-12--10h12-10--10-10--|

e----------------------|
b--3-------b-----------|
g--2-------b-----------|
d--0-------------------|
a--0-------------------|
d--0-------------------|

e-------------------------------------------------|
b-------------------------------------------------|
g-------------------------------------------------|
d-------------------------------------------------|
a-------------------------------------------------|
d--3p0-0-0-0-0-0-0-0-0-0---3p0-0-0-0-0-0-0-0-0-0--|
  pm - - - - - - - - - - - - - - - - - - - - - -|

e-----------------------------------------------------|
b-----------------------------------------------------|
g-----------------------------------------------------|
d------------------------------------------------0-0--|
a----------------------------------------------0-0-0--|
d--3p0-0-0-0-0-3p0-0-0-0-0---3p0-0-0-0-0-3p0-0-0-0-0--|
  pm - - - - - - - - - - - - - - - - - - - |

e---------------------------------------------|
b---------------------------------------------|
g---------------------------------------------|
d--0-10-10--0-5-5-5--0-3p0-0-0-0-0-0-0-0-0-0--|
a--0-10-10--0-5-5-5--0-3p0-0-0-0-0-0-0-0-0-0--|
d--0-10-10--0-5-5-5--0-3p0-0-0-0-0-0-0-0-0-0--|

e-------------------------------------------|
b-------------------------------------------|
g-------------------------------------------|
d--0-3-3--0-5-5-5--0-3p0-0-0-0-0-0-0-0-0-0--|
a--0-3-3--0-5-5-5--0-3p0-0-0-0-0-0-0-0-0-0--|
d--0-3-3--0-5-5-5--0-3p0-0-0-0-0-0-0-0-0-0--|

e---------------------------------------------|
b---------------------------------------------|
g---------------------------------------------|
d--0-10-10--0-5-5-5--0-3p0-0-0-0-0-0-0-0-0-0--|
a--0-10-10--0-5-5-5--0-3p0-0-0-0-0-0-0-0-0-0--|
d--0-10-10--0-5-5-5--0-3p0-0-0-0-0-0-0-0-0-0--|

e---------------------|
b---------------------|
g---------------------|
d--0-3-3--0-5-5-5--0--|
a--0-3-3--0-5-5-5--0--|
d--0-3-3--0-5-5-5--0--|

e-------------------------------------------------|
b-------------------------------------------------|
g-------------------------------------------------|
d-------------------------------------------------|
a-------------------------------------------------|
d--3p0-0-0-0-0-0-0-0-0-0-0-0-0-0-0-0-0-0-0-0-0-0--|
  pm - - - - - - - - - - - - - - - - - - - - - -|

e-------------------------------------------------|
b-------------------------------------------------|
g--(w/delay)-------------(w/delay)----------------|
d-------------------------------------------------|
a--3h5-------------------3h5----------------------|
d------0-0-0-0-0-0-0-0-0-----0-0-0-0-0-0-3-00-3---|
  pm - - - - - - - - - - - - - - - - - - - - - -|

*rest for 3.5 bars*

e---------------------------------------------|
b---------------------------------------------|
g---------------------------------------------|
d---------------------------------------------|
a---------------------------------------------|
d--3-00-3-----3-00-3-----3-00-3----3-00-3b----|
  pm - - - - - - - - - - - - - - - - - |

e-------------------------------------------------|
b-------------------------------------------------|
g-------------------------------------------------|
d-------------------------------------------------|
a-------------------------------------------------|
d--3p0-0-0-0-0-0-0-0-0-0---3p0-0-0-0-0-0-0-0-0-0--|
  pm - - - - - - - - - - - - - - - - - - - - - -|

e-----------------------------------------------------|
b-----------------------------------------------------|
g-----------------------------------------------------|
d------------------------------------------------0-0--|
a----------------------------------------------0-0-0--|
d--3p0-0-0-0-0-3p0-0-0-0-0---3p0-0-0-0-0-3p0-0-0-0-0--|
  pm - - - - - - - - - - - - - - - - - - - |

e---------------------------------------------|
b---------------------------------------------|
g---------------------------------------------|
d--0-10-10--0-5-5-5--0-3p0-0-0-0-0-0-0-0-0-0--|
a--0-10-10--0-5-5-5--0-3p0-0-0-0-0-0-0-0-0-0--|
d--0-10-10--0-5-5-5--0-3p0-0-0-0-0-0-0-0-0-0--|

e-------------------------------------------|
b-------------------------------------------|
g-------------------------------------------|
d--0-3-3--0-5-5-5--0-3p0-0-0-0-0-0-0-0-0-0--|
a--0-3-3--0-5-5-5--0-3p0-0-0-0-0-0-0-0-0-0--|
d--0-3-3--0-5-5-5--0-3p0-0-0-0-0-0-0-0-0-0--|

e---------------------------------------------|
b---------------------------------------------|
g---------------------------------------------|
d--0-10-10--0-5-5-5--0-3p0-0-0-0-0-0-0-0-0-0--|
a--0-10-10--0-5-5-5--0-3p0-0-0-0-0-0-0-0-0-0--|
d--0-10-10--0-5-5-5--0-3p0-0-0-0-0-0-0-0-0-0--|

e---------------------|
b---------------------|
g---------------------|
d--0-3-3----5-5-5--0--|
a--0-3-3----5-5-5--0--|
d--0-3-3----5-5-5--0--|

e-----------------------------------------|
b-----------------------------------------|
g-----------------------------------------|
d--0-0-0-3-0-5-5-0-3--0-0-0-3-0-6-6-5\3---| x3
a--0-0-0-3-0-5-5-0-3--0-0-0-3-0-6-6-5\3---|
d--0-0-0-3-0-5-5-0-3--0-0-0-3-0-6-6-5\3---|

e-----------------------------------------------------|
b-----------------------------------------------------|
g-----------------------------------------------------|
d--0-0-0-15-0-17-17-0-15--0-0-0-15-0-18-18-17\12\\\---|
a--0-0-0-15-0-17-17-0-15--0-0-0-15-0-18-18-17\12\\\---|
d--0-0-0-15-0-17-17-0-15--0-0-0-15-0-18-18-17\12\\\---|

e-----------------------------------------------------|
b-----------------------------------------------------|
g-----------------------------------------------------|
d--7-0--7p0-6-0--6p0-5--0-5-0--3-0-10h12-10h12-10h12--|
a--7-0--7p0-6-0--6p0-5--0-5-0--3-0-10h12-10h12-10h12--|
d--7-0--7p0-6-0--6p0-5--0-5-0--3-0-10h12-10h12-10h12--|

e----------------------------------------|
b----------------------------------------|
g---------------------------------5---7--|
d--7-0--7p0-6-0--6p0-5--0-5-0--3---------|
a--7-0--7p0-6-0--6p0-5--0-5-0--3--3---5--|
d--7-0--7p0-6-0--6p0-5--0-5-0--3---------|

e--------------------------------------------------------|
b--------------------------------------------------------|
g--9-9-9-9-9-9\8-8-8-8-8-8/12-12-12-12-12-12-12b-----12--|
d-------------------------------------------------12-----|
a--7-7-7-7-7-7\6-6-6-6-6-6/10-10-10-10-10-10-10b---------|
d--------------------------------------------------------|

e---------------------------------------------------------------------------------------|
b---------------------------------------------------------------------------------------|
g---------------------------------------------------------------------------------------|
d--12--13-12h13-12h13-12h13--12--13-12h13-12h13-12h13--12--13-12h13-12h13-12h13--10b----|
a---------------------------------------------------------------------------------------|
d---------------------------------------------------------------------------------------|

*hold and release*

e---------------------------(wah open)----------------------------------|
b----------------------------10-----------------------------------------|
g----------------------------9------------------------------------------|
d--7--0-7-6--0-6-0---3---5---7--(bend notes and close the wah slowly)---|
a--7--0-7-6--0-6-0---3---5---7------------------------------------------|
d--7--0-7-6--0-6-0---3---5---7------------------------------------------|

     x9      x4
e-------|-------|
b-------|-------|
g-------|-------|
d--1-0--|--1-0--|
a--1-0--|--1-0--|
d--1-0--|--1-0--|
   pm-

*rest*

e-----------------------------------------------------------------------------|
b-----------------------------------------------------------------------------|
g-----------------------------------------------------------------------------|
d--0-00-12--3h5-10h12--0-00-8--3h5-10h12--0-00-12--3h5-10h12--0-00-13-0-00----|
a--0-00-12--3h5-10h12--0-00-8--3h5-10h12--0-00-12--3h5-10h12--0-00-13-0-00----|
d--0-00-12--3h5-10h12--0-00-8--3h5-10h12--0-00-12--3h5-10h12--0-00-13-0-00----|

e----------------|
b----------------|
g----------------|
d----10-3h5-3p0--| x2
a----10-3h5-3p0--|
d----10-3h5-3p0--|

e-------------------------------------------------|
b-------------------------------------------------|
g-------------------------------------------------|
d--10h12-12--10h12-12--10h12-12--10h12-10--10-10--| x4
a--10h12-12--10h12-12--10h12-12--10h12-10--10-10--|
d--10h12-12--10h12-12--10h12-12--10h12-10--10-10--|

e---------------------------|
b---------------------------|
g---------------------------|
d--12~-12~-12~-12~-10~-10~--| x4
a--12~-12~-12~-12~-10~-10~--|
d--12~-12~-12~-12~-10~-10~--|

e-------------|
b-------------|
g-------------|
d--12\\\0-----|
a--12\\\0-----|
d--12\\\0-----|

thats all, enjoy!
_____________________________________________________________________________
8. Intermission (all synth)
_____________________________________________________________________________
9. Jimmy
-------
Jimmy Tab by Tool, www.Ultimate-Guitar.Com

Artist: tool
Song: jimmy
Album: Ænema
tuning low to high: D A D G B E

Tabbed: by brYan raGue
Visit: www.bryantabcenter.com

§weet §ong. listen to it for the timing (its a little weird)

intro:
|---------------------------------------|   |--------------------------|
|---------------------------------------|   |--------------------------|
|---------------------------------------|   |-12-----------------------|
|-12--0-0-3/12-12-0-0-5/12-12-0-0-1/10--|   |-12--------10----------12-|
|-12--0-0-3/12-12-0-0-5/12-12-0-0-1/10--|x6 |-12------10------12-------|
|-12--0-0-3/12-12-0-0-5/12-12-0-0-1/10--|   |-12-----------------------|


|------------|
|------------|
|------------|
|------------|
|------------|x3
|-13\1-1/-12-|
[ Tab from: http://www.guitartabs.cc/tabs/t/tool/aenima_tab_ver_5.html ]
|---------------------------------------|
|---------------------------------------|
|---------------------------------------|
|-12--0-0-3/12-12-0-0-5/12-12-0-0-1/10--|
|-12--0-0-3/12-12-0-0-5/12-12-0-0-1/10--|
|-12--0-0-3/12-12-0-0-5/12-12-0-0-1/10--|

|--------------------|    |------------------------------------------|
|--------------------|    |------------------------------------------|
|--------------------|    |------------------------------------------|
|--------------------|    |-12--0-0-8/12-12-0-0-10/12-12-0-0-1/10----|
|--------------------|x8  |-12--0-0-8/12-12-0-0-10/12-12-0-0-1/10----|x4
|-0-10-12-0-12h13h12-|    |-12--0-0-8/12-12-0-0-10/12-12-0-0-1/10----|
                          PM-----------------------------------------|PM

|---------------------------------------------------------------|
|---------------------------------------------------------------|
|--------------------------------|¤ gradually release PM on 4th-|
|----3----------3----------3------------------------------------|  time thru ¤
|--5---5-3-5--5---5-3-5--5---5-3--------------------------------|x4
|---------------------------------------------------------------|
PM--------------------------------------------------------------|PM

|---------------------------------------|
|---------------------------------------|
|---------------------------------------|
|-12--0-0-3/12-12-0-0-5/12-12-0-0-1/10--|
|-12--0-0-3/12-12-0-0-5/12-12-0-0-1/10--|x4
|-12--0-0-3/12-12-0-0-5/12-12-0-0-1/10--|

|---------------------------------------------------------|
|---------------------------------------------------------|
|---------------------------------------------------------|
|-0-10-12-0-12h13h12--0-10-12-0-12h13h12--0-10-12-0-8-10--|
|-0-10-12-0-12h13h12--0-10-12-0-12h13h12--0-10-12-0-8-10--|
|-0-10-12-0-12h13h12--0-10-12-0-12h13h12--0-10-12-0-8-10--|

|---------------------|  |------------------------|   |--------------|
|---------------------|  |------------------------|   |--------------|
|---------------------|  |------------------------|   |--------------|
|-12---------------10-|  |-12-0-7-0-10-10-0-8-7-5-|   |-12-0-7---10^-|
|-12-¤-hold--------10-|  |-12-0-7-0-10-10-0-8-7-5-|x3 |-12-0-7-0-10^-|
|-12---------------10-|  |-12-0-7-0-10-10-0-8-7-5-|   |-12-0-7-0-10^-|

    ¤ heavy distortion ¤
|---------------------------------------------------------|
|---------------------------------------------------------|
|---------------------------------------------------------|
|-0-12-10-10-12-13-12-10-12-0-12-10-10-12-13-12-10-12-0---|
|-0-12-10-10-12-13-12-10-12-0-12-10-10-12-13-12-10-12-0---|
|-0-12-10-10-12-13-12-10-12-0-12-10-10-12-13-12-10-12-0---|
PM--------------------------------------------------------|PM

|-------------------------------------------------------|
|-------------------------------------------------------|
|-------------------------------------------------------|
|-0-12-10-10-12-13-12-10-12-0-12-10-10-12-13-12-10-12---|
|-0-12-10-10-12-13-12-10-12-0-12-10-10-12-13-12-10-12---|
|-0-12-10-10-12-13-12-10-12-0-12-10-10-12-13-12-10-12---|
PM------------------------------------------------------|PM

|------------|    |--------------|       |--------------|
|------------|    |--------------|       |--------------|
|------------|    |--------------|       |--------------|
|----3-------|    |--------------|       |----3---------|
|--5---5-3-5-|x8  |--5-5-3-5h6h5-|x8     |--5---5-3-5---|x4
|------------|    |---0----------|       |--------------|
PM----------PM                          PM--------------|PM

|--------------|
|--------------|
|--------------|
|--------------|
|--5-5-3-5h6h5-|x8
|---0----------|

climax of song (3:39)
|---------------------------------------|
|---------------------------------------|
|---------------------------------------|
|-12--0-0-3/12-12-0-0-5/12-12-0-0-1-10--|
|-12--0-0-3/12-12-0-0-5/12-12-0-0-1-10--|x4
|-12--0-0-3/12-12-0-0-5/12-12-0-0-1-10--|

                        not sure about this one...
|-------------------|    |----------------------|
|-------------------|    |----------------------|
|-------------------|    |----------------------|
|-12---6---3---3h5--|    |-12---10---12--12h13--|
|-12---6---3---3h5--|x4  |-12---10---12--12h13--|x3
|-12---6---3---3h5--|    |-12---10---12--12h13--|
--

|-------------------------|
|-------------------------|
|-------------------------|
|-12---6---3----8---10-10-|
|-12---6---3----8---10-10-|
|-12---6---3----8---10-10-|

outro:
|---------------------------------------|
|---------------------------------------|
|---------------------------------------|
|-12--0-0-3/12-12-0-0-5/12-12-0-0-1/10--|
|-12--0-0-3/12-12-0-0-5/12-12-0-0-1/10--|x2
|-12--0-0-3/12-12-0-0-5/12-12-0-0-1/10--|

|----------------------------------------|
|----------------------------------------|
|----------------------------------------|
|-12--0-0-3/12-12-0-0-5/12-12-0-0-1---10-|
|-12--0-0-3/12-12-0-0-5/12-12-0-0-1---10-|
|-12--0-0-3/12-12-0-0-5/12-12-0-0-1---10-|


|-------------------------------------------|
|-------------------------------------------|
|-------------------------------------------|
|-12--0-0-3/12-12-0-0-5/12-12-0-0-1---------|
|-12--0-0-3/12-12-0-0-5/12-12-0-0-1-¤-hold--|
|-12--0-0-3/12-12-0-0-5/12-12-0-0-1---------|

and thats it. nothing to it eh?
_____________________________________________________________________________
10. Die Eier Von Satan
----- couldnt find a guitar tab for it ----------
_____________________________________________________________________________
11. Pushit (Note: i couldn't find a tab for the real album version so here's the live
version off of Salival)
-------
Pushit Live Tab by Tool, www.Ultimate-Guitar.Com

Band: Tool
Song: Push It (live)
Album: Salival-Boxset
Running time: 13:56

Written by: Tool
Guitarist: Adam Jones
Transcriber: Some guy named Jimmy and perfected by Devin
E-mail: tetsutakashi@aol.com
This is my first tab ever so hope you enjoy and hope its to you liking.
This is just the intro part. The rest of the song is the same as the
studio version. Its play with light distortion and some reverb on the
very start of it but just toy with it it's a great song to play.

Tunging:
Low to High (DADGBe)

~: let ring
\: slide down
/: slide up
H: hammer-on
p: pull-off

E|-----|                 ---------------------------------------------|
B|-----| Tremolo this    ---------------------------------------------|
G|-----| note over the   -2----2/3--3---3/5---5-5-5—--2/3—3p0--3—3p2—-|
D|-0---| rest of this    ---------------------------------------------|
A|-----| until noted     ---------------------------------------------|
D|-----|                 ---------------------------------------------|

----------------------------------------------------------------------|
----------------------------------------------------------------------|
-5/7--7----9h10-13p10-9h10-9h10-13--10--9---7\5—-5/7-----2/3--5—3p0---|
----------------------------------------------------------------------|
----------------------------------------------------------------------|
----------------------------------------------------------------------|

End of Tremolo                       x4             |"Disappear..."
--------------|------------------------|------------------------------|
--------------|------------------------|------------------------------|
-3--2----2--0-|---2----2----2-----2----|---2----2----2------2----2----|
--------------|-0----3----5---------5--|-0----3----5----------5----5--|
--------------|----------------3-------|----------------3-------3----3|
--------------|------------------------|------------------------------|
                                Riff 1a                        Riff 1b

2:00                                 x8 2:51 "Pushed away my dear"  x4
---------------------------------------|------------------------------|
---------------------------------------|------------------------------|
---2---2------2---2------2---2----2----|------------------------------|
-0---0---0--3---3---3--5---5---5----5--|--7---7\3---3--3—-3/5---5\0---|
---------------------------------3----3|--7---7\3---3--3—-3/5---5\0---|
---------------------------------------|--7---7\3---3--3—-3/5---5\0---|
                                Riff 1c                         Riff 2

E|-----------------|                 D|---------|
B|-3---3---3---3---|Some guitar fill A|---------|Bass fill
G|---2-------2-----|                 D|--10/9---|

                                     x2
---------------------------------------|------------------------------|
---------------------------------------|------------------------------|
---2---2------2---2------2---2----2----|------------------------------|
-0---0---0--3---3---3--5---5---5----5--|------------------------------|
---------------------------------3----3|------------------------------|
---------------------------------------|------------------------------|


-----------------------------------------------------------------------|
-----------------------------------------------------------------------|
---2---2------2---2------4---4-----4---4------2---2------2---2------2--|
-0---0---0--3---3---3--5---5---5-----5------0---0---0--3---3---3--5----|
---------------------------------3-------------------------------------|
-----------------------------------------------------------------------|


                    "I will choke until I swallow..."
-------------------|---------------------------------------------------|
-------------------|---------------------------------------------------|
---2---2-----------|---------------------------------------------------|
-5---5---5---------|---------------------------------------------------|
-----------3-------|---------------------------------------------------|
-------------------|---------------------------------------------------|
            Riff 1d

At 6:07, starts playing the regular riff, but the guitar keeps going
with Riff 2 until 6:33.
Hope you enjoy this, because I sure do.
_____________________________________________________________________________
12. Cesaro Summability (no guitar)
_____________________________________________________________________________
13. AEnima
---
Aenima Tab by Tool, www.Ultimate-Guitar.Com

Believe me Tool fans, this is the right and correct tablature to this song. Myself and
friends helped put this tablature together. Hope you enjoy it.

Tuning: (D, A, D, G, B, E)

Intro (8x)
-----------------------|
-----------------------|
--------0--------------|
-2p0h2--0---2p0-2p0h2--|
-2p0h2------2p0-2p0h2--|
-2p0h2------2p0-2p0h2--|

Some people think that there was no guitar playing during the verse of the song. While
turning up the volume, me and my friends came up with this conclusion.

Verse (8x)
--------------------------------|
--x----x--x--x----x----x--x--x--|
--x----x--x--x----x----x--x--x--|
--x----x--x--x----x----x--x--x--|
--------------------------------|
--------------------------------|

This next part is p.m. all through out

"bull -   "                 "shit -   "
---------------------------|------------------------------|
---------------------------|----------0------------0------|
---------------------------|------------------------------|
---------------------------|------------------------------|
--2p0-2p0-2p0-2p0-2p0-2p0--|--2p0--2-----2p0-2p0-2----4p2-|
--2p0-2p0-2p0-2p0-2p0-2p0--|--2p0--2-----2p0-2p0-2----4p2-|

"three -     "               "ring____  "
----------------------------|------------------------------|
---------0------------------|----------------------0--0----|
---------0------------------|--------0-------------0--0----|
----------------------0-----|------------------------------|
--5p0-5----5p0-5p0-5----5p0-|--5p0-5----5p0-5p0-5----------|
--5p0-5----5p0-5p0-5----5p0-|--5p0-5----5p0-5p0-5----------|

"cir -     "                 "cus -     "
-------0------------0-------|--------0-------------0-------|
-------0------------0-------|--------0-------------0-------|
----------------------------|------------------------------|
-2-0-2----------------------|------------------------------|
---------2p0-2p0-2-----2p0--|--2p0-2----2p0-2p0-2-----4p0--|
---------2p0-2p0-2-----2p0--|--2p0-2----2p0-2p0-2-----4p0--|

"side -     "                 "show___of___"
-----------------------------|--------------0--------|
-----------------------------|--------------0----3---|
--------0-------------0------|--5----5p0h5--0----2---|
--------0-------------0------|--5----5p0h5--0----0---|
-5p0-5-----5p0-5p0-5----5p0--|--3----3p0h3--2----0---|
-5p0-5-----5p0-5p0-5----5p0--|-------------------0---|


Chorus
-----------------------------------------------------------|
-----------------------------------------------------------|
---4----4-----------4----4---------4---4-------------7---2-|
---2----2--x--x--x--2----2--x-x-x--2---2---x--x--x---5---0-|
---2----2--x--x--x--2----2--x-x-x--2---2---x--x--x---5---0-|
---2----2--x--x--x--2----2--x-x-x--2---2---x--x--x---5---0-|

-----------------------------------------------------------|
-----------------------------------------------------------|
--4---4----------4---4----------4---4----------5--5--2-2-2-|
--2---2--x--x--x-2---2-x--x--x--2---2--x--x--x-3--3--0-0-0-|
--2---2--x--x--x-2---2-x--x--x--2---2--x--x--x-3--3--0-0-0-|
--2---2--x--x--x-2---2-x--x--x--2---2--x--x--x-3--3--0-0-0-|

-----------------------------------------------------------|
-----------------------------------------------------------|
-4---4-----------4---4-----------4---4----------7---2-2-2--|
-2---2--x--x--x--2---2--x--x--x--2---2--x--x--x-5---0-0-0--|
-2---2--x--x--x--2---2--x--x--x--2---2--x--x--x-5---0-0-0--|
-2---2--x--x--x--2---2--x--x--x--2---2--x--x--x-5---0-0-0--|

-----------------------------------------------------------|
-------------------------------------------------3--3--3---|
-4---4----------4---4----------4---4-------------2--2--2---|
-2---2--x--x--x-2---2--x--x--x-2---2--x--x--x/10-0--0--0---|
-2---2--x--x--x-2---2--x--x--x-2---2--x--x--x/10-0--0--0---|
-2---2--x--x--x-2---2--x--x--x-2---2--x--x--x/10-0--0--0---|


------------------------------------------------|
------------------------------------------------|
------------------------------------------------|
------------------------------------------------|
--2--(2)-----/5---0---2--------(2)---/5----0----|
--2--(2)-----/5---0---2--------(2)---/5----0----|


Interlude  w/Flanger
-------------------------------|---------------------------|
-------------------------------|---------------------15\-3-|
------2--2--2------------------|-4-4-4-4(4)/12-12-12-15\-2-|
-0----0--0--0--10-10-10--------|-2-2-2-2(2)/12-12-12-15\-0-|
-0----0--0--0--10-10-10--12----|-2-2-2-2(2)/12-12-12-15\-0-|
-0----0--0--0--10-10-10----12--|-2-2-2-2(2)/12-12-12-15\-0-|

---------------------------|-0-0-0-0-----------------------|
-3------3-3-3--------------|-0-0-0-0-----------------------|
-2------2-2-2--------------|-4-4-4-4-----------------------|
-0--0---0-0-0-10-10-10-----|-2-2-2-2--2/10-10-10-12--------|
-0--0---0-0-0-10-10-10-12\-|-2-2-2-2--2/10-10-10-12--------|
-0--0---0-0-0-10-10-10-----|-2-2-2-2--2/10-10-10-12--------|

----------------------------|-0--0-0-0-0/-------------------|
-3--3-3-3-3-----------------|-0--0-0-0-0/-13-13-13-15-15-15-|
-2--2-2-2-2-12-12-12--------|-1--1-1-1-1/-12-12-12-14-14-14-|
-0--0-0-0-0-12-12-12-12\----|-2--2-2-2-2/-10-10-10-12-12-12-|
-0--0-0-0-0-12-12-12-12\----|-2--2-2-2-2/-------------------|
-0--0-0-0-0-12-12-12-12|----|-2--2-2-2-2/-------------------|

                                  Let ring through out
----------------------------------0-------------------|
-15-15-15-15-15-13-13-13-15-13\---0-------------------|
-14-14-14-14-14-12-12-12-14-12\---4-------------------|
-12-12-12-12-12-10-10-10-12-10\---2-------------------|
----------------------------------2-------------------|
----------------------------------2-------------------|

starting with "some say a comet___"
-----------------------------------------------------------|
-----------------------------------------------------------|
-----------------------------------------------------------|
9-----------7----7----10---------9-------9-------7------5--|
-----------------------------------------------------------|
-----------------------------------------------------------|

"dumb founded dipshits_____"
-------------------------------------------|
-------------------------------------------|
---4---------------------------------------|
---------5---(5)\---------2----------------|
--------------------------2----------------|
-------------------------------------------|

(2x)
-------------------------------------------|
-------------------------------------------|
-------------------------------------------|
--2/--5-----------------------5\2----------|
--2/--5-----------------------5\2----------|
--2/--5-----------------------5\2----------|

before solo                      |"it ought to be___"
-------------------------------------------------------|
-------------------------------------------------------|
--------(5)--------------------------------------------|
-------2/5---------------------------------------------|
-------2/5-------------------------3////5--------------|
-------2/5---------------------------------------------|

Solo
---------------------------------------------------------|
---------------------------------------------------------|
---------------------------------------------------------|
------------14\-------------14-------------14--(14)\12---|
12/14-12/14-----12/14-12/14----12/14-12/14---------------|
---------------------------------------------------------|
                             let ring--------------------|
--------------------------|------------------------------|
--------------------------|------------------------------|
--------------------------|-12----------------12----12---|
-----------14---14\11-----|-12----------------------12---|
-12/-12/14----------------|------------------------------|
--------------------------|------------------------------|

-----------------------------------|
---------------------------12\-----|
-(12)\------------12---------------|
-(12)\-----------------12----------|
--------12---12--------------------|
-----------------------------------|

-----------------------------------------------------------|
-----------------------------------------------------------|
-----------------------------------------------------------|
-------------14\----------14---14-(14)\---14--14--14-------|
-12/14-12/14----12/14--14-----------------------------14---|
-----------------------------------------------------------|

-----------------------------------------------------------|
-----------------------------------12---12----(12)---------|
-12---12/9--14---14\---------------12---12----(12)---------|
----------------------12----12--12-------------------------|
-----------------------------------------------------------|
-----------------------------------------------------------|

--------------------------------------12-------(12)\--|
----12\---------12\---12\---12\-------12-------(12)\--|
----12\---------12\---12\---12\-------12-------(12)\--|
--------12-(12)\12\---12\---12\-----------------------|
------------------------------------------------------|
------------------------------------------------------|

"Learn to swim__"  Play the first two times.
-----------------------------------------------------------|
-----------------------------------------------------------|
-----------------------------------------------------------|
-----------------------------------------------------------|
-2-2-2-2-2-2-2-2-2-2-2-2-2-2-2-2-2-2-2-2-2-2-2-2-2-2-2-2-2-|
-2-2-2-2-2-2-2-2-2-2-2-2-2-2-2-2-2-2-2-2-2-2-2-2-2-2-2-2-2-|

-----------------------------0-0-0-0-0-0---------|
-------------------------0-0-0-0-0-0-0-0---8-----|
-------------------------4-4-4-4-4-4-4-4/--7-----|
-------------------2-2-2-2-2-2-2-2-2-2-2/--5-----|
-2-2-2-2-2-2-2-2-2-2-2-2-2-2-2-2-2-2-2-2/--------|
-2-2-2-2-2-2-2-2-2-2-2-2-2-2-2-2-2-2-2-2/--------|

Third part "Fuck your tatoos____"
-x-x-x-x-x-x-x-x-x-x-x-x-x-x-x-x-x-x-x-x-x-x-x-x-x-x-x-x-x-|
-x-x-x-x-x-x-x-x-x-x-x-x-x-x-x-x-x-x-x-x-x-x-x-x-x-x-x-x-x-|
-x-x-x-x-x-x-x-x-x-x-x-x-x-x-x-x-x-x-x-x-x-x-x-x-x-x-x-x-x-|
-----------------------------------------------------------|
-----------------------------------------------------------|
-----------------------------------------------------------|

Play the same part as the first two and then we move on to
"fuck smiley glad hands___"
----------------------------------------------------------|
---8--------8------------8-----8------------8-8-8-8-8-8-/-|
---7---7--7-7------------7-----7--7-----7---7-7-7-7-7-7-/-|
---5---5--5-5----------5-5--5--5--5-----5---5-5-5-5-5-5-/-|
---5---5--5------------5----5-----5-----5---5-5-5-5-5-5-/-|
---5---5--5------------5----5-----------------------------|

"Fuck these dysfunctional___"
-----------------------------------------------------------|
-20-20-20-20-20-20-20-20-20-20-0--8-8-8-8-8/20-20-20-20-20-|
-19-19-19-19-19-19-19-19-19-19-0--7-7-7-7-7/19-19-19-19-19-|
-17-17-17-17-17-17-17-17-17-17-0--5-5-5-5-5/17-17-17-17-17-|
-----------------------------------------------------------|
-----------------------------------------------------------|

-----------------------------------------------------------|
-5--5/-17-17-17-17-17\-5-5-5-5-5/17-17-17-17-17------------|
-4--4/-16-16-16-16-16\-4-4-4-4-4/16-16-16-16-16------------|
-2--2------------------2-2-2-2-2------------------5--2p0---|
-2--2------------------2-2-2-2-2------------------5--2p0---|
-2--2------------------2-2-2-2-2------------------5--2p0---|

                                "oh________cuz I'm praying"
-----------------------------------------------------------|
-5/17-17-17-17-----------5-5-5-5--5/17--17-17\8------------|
-4/16-16-16-16-----------4-4-4-4--4/16--16-16\7------------|
-2--------------0--0--0--2-2-2-2--2-----------7------------|
-2--------------0--0--0--2-2-2-2--2-----------5------------|
-2-----------------------2-2-2-2--2------------------------|


"mom, please flush it all away____"
------------------------------------------------------------|
------------------------------------------------------------|
------------------------------------------------------------|
------------------------------------------------------------|
--14~~~~~14--14-14--14--14/12-12~~~~12--12-12--12--12-12-12-|
------------------------------------------------------------|

"see it go right in and down___"
-----------------------------------------------------------|
-----------------------------------------------------------|
-----------------------------------------------------------|
-10~~~~~~~10--10-10------10-10-10--9-9~~~~~~9--9-9^-9^-9^--|
-----------------------------------------------------------|
-----------------------------------------------------------|

                                      "away______"
-----------------------------------------------------------|
-----------------------------------------------------------|
-----------------------------4--------4-4-4-4-4------------|
-9\7--7---7-7---7----7--7--5-----5-5--5-5-5-5-4------------|
-----------------------------------------------------------|
-----------------------------------------------------------|

Outro  (play 3 times)
-----------------------------------------------------------|
-----------------------------------------12\---------------|
-----------------------------------------11\---------------|
-2--2--2p0-0--0-0-0--5--5---0--0-0--9-9-9-9\--0--0--0--9---|
-2--2--2p0-0--0-0-0--5--5---0--0-0--9-9-9-9\--0--0--0--9---|
-2--2--2p0-0--0-0-0--5--5---0--0-0--9-9-9-9\--0--0--0--9---|

(continued)
-----------------------------|
-----------12--12------------|
-----------11--11------------|
---9--9--9--9---9--0--0--0---|
---9--9--9--9---9--0--0--0---|
---9--9--9--9---9--0--0--0---|

"my friend____"             With bar
---------------------------------------------------|
----5------5------3--3---3/8--8~~~~8\-3----3--3--3-|
----4------4------2--2---2/7--7~~~~7\-2----2--2--2-|
----2------2------0--0---0/5--5~~~~5\-0----0--0--0-|
----2------2------0--0---0/5--5~~~~5\-0----0--0--0-|
----2------2------0--0---0/5--5~~~~5\-0----0--0--0-|

(4x)
------------------------------------|
-----------------12\----------------|
-----------------11\----------------|
-9-----9--9--9----9\---0--0--0------|
-9-----9--9--9----9\---0--0--0------|
-9-----9--9--9----9\---0--0--0------|

Ending           (8x)                (3x)
------------------------|---------------------|-----------|
------------------------|---------------------|-----------|
------------------------|---2--------2--2---2-|-2---------|
--9-----9------9^-------|---6--------6--6---6-|-6---------|
--9-----9------9^-------|---5-----5-----5---5-|-5---------|
--9-----9------9^-------|---------------------|-----------|

Thats It!......You all now have the right rablature for this song......have fun!
_____________________________________________________________________________
14. Ions (no guitar)
_____________________________________________________________________________
15. Third Eye
----

Third Eye Tab by Tool, www.Ultimate-Guitar.Com

Author/Artist: Tool
Title: Third eye
Album: AEnima/salival
Transcribed by: Ramzi Kamal
Email: sx3a@yahoo.com

Adam Uses a Slide,

Intro played with slide
----------------12---12---12-|
----------------12---12---12-|
-----------12---12---12---12-|
-2/4//7////12---12---12------|
-2/4//7////12---12-----------|
-2/4//7////12---12-----------|

At this part slide up and down at the pickups
-------------------//////-----\\\\\\\-////////-|
-------------------//////-----\\\\\\\-////////-|
-12\\\\\1////////12//////-----\\\\\\\-////////-|
-12\\\\\1////////12//////-----\\\\\\\-////////-|
-12\\\\\1////////12----------------------------|
-12\\\\\1////////12----------------------------|


-7----7///12-----12/15-----15\10---10/12-|
-7----7///12-----12/15-----15\10---10/12-|
-7----7///12-----12/15-----15\10---10/12-|
-----------------------------------------|
-----------------------------------------|
-----------------------------------------|


-0
-0
-0
--
--
--

Dreaming of that face again.......
--------------------------|
--------------------------|
--------------------------|
--------------------------|
----8-10-----8-10-----5-7-|
-0--------0--------0------|
p.m.____________________

--------------|
--------------|
--------------|
--------------|
---3-5----5-7-|
-0------0-----|
p.m._________


--------------------|
--------------------|
--------------------|
---12-14------14-16-|
--------------------|
-0---------0--------|
p.m._______________


play with slide
---------------------|
---------------------|
---------------------|
---------------------|
-12-----12\11--11/12-|
---------------------|

the xxxx stands for pick scraping up or down
---------------------------------------------|
---------------------------------------------|
---------------------------------------------|
-0--\xxxxx-----0-\xxxxx--------0------/xxxxx-|
-0-----\xx-----0------\xxx-----0---/xx-------|
-0-------------0---------------0-------------|

solo 1
-----------------------------------|
-----------------------------------|
-----------------------------------|
-7----7\5--3////12/13\10--3/5--8-7-|
-----------------------------------|
-----------------------------------|


-------------------------------------------------|
-------------------------------------------------|
-------------------------------------------------|
-12-10-12-10-12-10-12-10-12-10-12-10-12-10-12-10-|
-------------------------------------------------|
-------------------------------------------------|


------------------------|
------------------------|
------------------------|
------------------------|
-10h12h10h13h12p10p10h13
------------------------


---------------------------------------------|
---------------------------------------------|
---------------------------------------------|
-15p14-14--12h14-15-14-12--10h12-12-15h17-17-|
---------------------------------------------|
---------------------------------------------|

use slide at this part
-0//////////12\\\\\\\\\0
-0//////////12\\\\\\\\\0
-0//////////12\\\\\\\\\0
------------------------|
------------------------|
------------------------|


--------------------|
--------------------|
------------------3-|
--------------------|
-3h5-5-5--3h5-3h5---|
--------------------|


---------------------|
---------------------|
-------------------4-|
---------------------|
-3h5-5-5--3h5-3h5----|
---------------------|


--------------------|
--------------------|
------------------5-|
--------------------|
-3h5-5-5--3h5-3h5---|
--------------------|


-----------------------------|
-----------------------------|
-----------------------------|
--------------------------12-|
-3h5-5-5--3h5-3h5------11----|
--------------------10-------|


--------------|
--------------|
--------------|
-0---------12-|
-0------11----|
-0---10-------|


---------------------------------|
---------------------------------|
---------------------------------|
-0----------12-------0--------12-|
-0-------11----11----0------11---|
-0----10-------------0---10------|


---------------------------|
---------------------------|
-7---7---7---7---7---7---7-|
-6---6---6---6---6---6---6-|
-5---5---5---5---5---5---5-|
-0---0---0---0---0---0---0-|


--
--
--
-0
-0
-0

So good to see you............
------------------------|
------------------------|
------------------------|
-14--14\\\\-2////-10-10-|
-12--12\\\\-2////--8--8-|
-12--12\\\\-2////--8--8-|

Use clean chorus and delay at these parts
Shrouding all the ground around me.....
-------------|
-------------|
-2-2-----3-3-|
-------------|
-------------|
-------------|

Is this holy crow above me.......
-----------------|------------------|
-----------------|------------------|
-2-2-22-2-22-2-22|-3-3-33-3-33-3-33-|
-----------------|------------------|
-----------------|------------------|
-----------------|------------------|


-----------------|------------------|
-3-3-33-3-33-3-33|-4-4-44-4-44-4-44-|
-2-2-22-2-22-2-22|-3-3-33-3-33-3-33-|
-----------------|------------------|
-----------------|------------------|
-----------------|------------------|

kick in distortion
-------------------------------|
-------------------------------|
-------------------------------|
-15-15-15-15-15-15-15-15-15-15-|
-13-13-13-13-13-13-13-13-13-13-|
-13-13-13-13-13-13-13-13-13-13-|

So good to see you. I've missed you so much.
-------------------------|
-------------------------|
-------------------------|
-14-14-1414\\-10-10-1010-|
-12-12-1212\\--8--8--8-8-|
-12-12-1212\\--8--8--8-8-|

Came out to watch you play.
--------------------------------|
--------------------------------|
--------------------------------|
-----14------12------14-----12--|
---12------12------12-----12----|
-12------12------12-----12------|

Why are you running away?
---------------------------------|
---------------------------------|
---------------------------------|
------10------8-------10-------8-|
----8-------8-------8--------8---|
--8-------8-------8--------8-----|

PRYING OPEN MY THIRD EYE!
---------------------|
---------------------|
-7--7--7--7--7--7--7-|
-6--6--6--6--6--6--6-|
-5--5--5--5--5--5--5-|
-0--0--0--0--0--0--0-|

pick scrape down the strings
------------------------------|
------------------------------|
------------------------------|
-\\xxxxxxxxxxxxxx-------------|
------------------xxxxxxx\\\\-|
------------------------------|

So good to see you once again. I thought that you were hiding.
---------------|
---------------|
---------------|
---------------|
---5-7-----3-5-|
-0------0------|
p.m.    p.m.


------------------|
------------------|
------------------|
---12-14----10-12-|
------------------|
-0--------0-------|
p.m.     p.m.

use clean chorus and delay
----------------------------------------------|
-3-3-33-3-3-3-4-4-44-4-4-4-6-6-66-6-6-4-4-6-4-|
-2-2-22-2-2-2-3-3-33-3-3-3-5-5-55-5-5-3-3-5-3-|
----------------------------------------------|
----------------------------------------------|
----------------------------------------------|

solo 2 with slide also use delay and chorus with distortion
-///10-10-1010-10/11\8-8/13-13-1313-13-13\11-11-13-11-|
-///10-10-1010-10/11\8-8/13-13-1313-13-13\11-11-13-11-|
------------------------------------------------------|
------------------------------------------------------|
------------------------------------------------------|
------------------------------------------------------|


--------------------------------------------------------|
-///10-10-1010-10/11\8-8-8-88-8//13-13-1313-13-13/11-11-|
--------------------------------------------------------|
--------------------------------------------------------|
--------------------------------------------------------|
--------------------------------------------------------|


-///15\13/15\13-13/15\\-10-10-10//13\10\8-|
------------------------------------------|
------------------------------------------|
------------------------------------------|
------------------------------------------|
------------------------------------------|


-----------------------------------------|
-----------------------------------------|
-12\10-10-10/12-12-12\10\7/10\10\7-------|
-----------------------------------10/12-|
-----------------------------------------|
-----------------------------------------|

use a very deep bass and treble at this part
---------------------|
---------------------|
---------------------|
-00-0-11-1-3-3h5-5h3-|
-00-0-11-1-3-3h5-5h3-|
-00-0-11-1-3-3h5-5h3-|


-------------------|
-------------------|
-------------------|
-00--0-------------|
-00--0-------------|
-00--0---3h5-5h3-0-|

Prying open my third eye.
------------------|
------------------|
-7------7-------7-|
-6------6-------6-|
-5------5-------5-|
-0------0-------0-|
_____________________________________________________________________________
Comments