Tool - Aenima Chords & Tabs

 

Aenima Chords & Tabs

Tool Chords & Tabs

Version: 4 Type: Tab 0 ratings
1 star 2 stars 3 stars 4 stars 5 stars
comments

Aenima Tab

   
Well...here it goes.
[A]
e|--------------------]
b|--------------------]
g|--------------------]
d|--------------------]
a|-2-0-2-5-2-0-2-0-2--]
D|-2-0-2-5-2-0-2-0-2--](listen to the CD to see how many times you play it)

[B](This part is palm muted)
e|------------]
b|------------]
g|------------]
d|------------]
a|-0-2-2-2-2--]
D|-0-2-2-2-2--](i think you play this 4 times, but im not sure,
listen to the CD to find out exactly how many times you play it.)
[ Tab from: http://www.guitartabs.cc/tabs/t/tool/aenima_tab_ver_4.html ]
[C](This part is palm muted)
e|------------]
b|------------]
g|------------]
d|------------]
a|-0-5-5-5-5--]
D|-0-5-5-5-5--](I think you play this 4 times...)

Then you play part [B] and [C] again. Then you play...

[D]
e|--------------------------------------------------------------]
b|--------------------------------------------------------------]
g|--------------------------------------------------------------]
d|--------------------------------------------------------------]
a|-2---2-x-2---2-x-2---2-x-5--0---2---2-x-2---2-x-2---2-x-3--0--]
D|-2---2-x-2---2-x-2---2-x-5--0---2---2-x-2---2-x-2---2-x-3--0--]
(listen to the cd to figure out how many times you play it)

Anyways, thats how i play it...sounds good to me...later.
Comments