Tool - Aenima Chords & Tabs

 

Aenima Chords & Tabs

Tool Chords & Tabs

Version: 2 Type: Tab 0 ratings
1 star 2 stars 3 stars 4 stars 5 stars
comments

Aenima Tab

   
#----------------------------------PLEASE NOTE---------------------------------#
#This file is the author's own work and represents their interpretation of the #
#song. You may only use this file for private study, scholarship, or research. #
#------------------------------------------------------------------------------#
#


From tuk@northnet.org Thu May  8 14:10:46 1997
Date: Tue, 22 Apr 1997 21:34:42 -0400
From: The Robbs 
To: guitar@olga.net
Subject: TAB:  "AEnima"  by TOOL

Artist: Tool
Album: AEnima
Song: AEnima
Track: 13
Trascribed by: Greg Robb
Musician Credit to:Danny Carey, Maynard James Keenan, Justin
Chancellor, and Adam Jones.

                        AEnima-Tool

With distortion 
play it very tight.

tuning is: low to high (DADGBE)

p=pull off  h=hammer-on

Inro riff:(8 times)
D----------------------------|
A----------------------------|
D--2--0--2--5--2--0--2--0--2-|
    p  h  h  p  p  h  p  h

Next Main Part:
[ Tab from: http://www.guitartabs.cc/tabs/t/tool/aenima_tab_ver_2.html ]
E-----------------------------|
B-----------------------------|
G-----------------------------|
D-2-X-X-X-2-X-X-X-2-X-X-X-5--0|
A-2-X-X-X-2-X-X-X-2-X-X-X-5--0|
D-2-X-X-X-2-X-X-X-2-X-X-X-5--0|

E-----------------------------|
B-----------------------------|
G-----------------------------|
D-2-X-X-X-2-X-X-X-2-X-X-X-3--0|
A-2-X-X-X-2-X-X-X-2-X-X-X-3--0|
D-2-X-X-X-2-X-X-X-2-X-X-X-3--0|

E-----------------------------|
B-----------------------------|
G-----------------------------|
D-2-X-X-X-2-X-X-X-2-X-X-X-5--0|
A-2-X-X-X-2-X-X-X-2-X-X-X-5--0|
D-2-X-X-X-2-X-X-X-2-X-X-X-5--0|

E-------------------------------|            
B-------------------------------|
G-------------------------------|
D-2-X-X-X-2-X-X-X-2-X-X-X-10--12|
A-2-X-X-X-2-X-X-X-2-X-X-X-10--12|
D-2-X-X-X-2-X-X-X-2-X-X-X-10--12|

before this part when just the bass and drums play
there is guitar it is some what like the last part
only muted really soft with occasional open high
B's and E's 

This should be enough to get you started.
greg
tuk@northnet.org
Comments