Tool - Aenema Chords & Tabs

 

Aenema Chords & Tabs

Tool Chords & Tabs

Version: 1 Type: Tab 0 ratings
1 star 2 stars 3 stars 4 stars 5 stars
comments

Aenema Tab

   
Band- Tool
Song- Aenema

Gtr I (D A D G B E) - 'Adam Jones - Rhythm w/dist'
Gtr II (D A D G B E) - 'Adam Jones - Rhythm / Lead w/dist'
Gtr III (D A D G B E) - 'Adam Jones - Rhythm w/dist'

Intro                                           Verses
  Q.=120
                                              $
 12/8
  Gtr I
  W                E E E E E E E E E Q.    8x     Q  E E E E Q  E E E E
|--------------||--------------------------||-||-------------------------|
|--------------||o------------------------o||-||o------------------------|
|--------------||--------0-----------------||-||-------------------------|
|--------------||--2p0-2-0-2p0-2p0h2-------||-||--x--x-x-x---x--x-x-x----|
|--------------||o-2p0-2---2p0-2p0h2------o||-||o-x--x-x-x---x--x-x-x----|
|--------------||--2p0-2---2p0-2p0h2-------||-||--x--x-x-x---x--x-x-x----|


  Q  E E E E Q  E E E E   Q  E E E E Q  E E E E
|-----------------------|-----------------------|
|-----------------------|-----------------------|
|-----------------------|-x--x-x-x---x--x-x-x---|
|-x--x-x-x---x--x-x-x---|-x--x-x-x---x--x-x-x---|
|-x--x-x-x---x--x-x-x---|-----------------------|
|-x--x-x-x---x--x-x-x---|-----------------------|


 1.                         2.
  Q  E E E E Q  E E E E      Q  E E E E Q  E Q.
|------------------------||------------------------||
|-----------------------o||------------------------||
|-x--x-x-x---x--x-x-x----||--x--x-x-x---x--x-0-----||
|-x--x-x-x---x--x-x-x----||--x--x-x-x---x--x-0-----||
|-----------------------o||------------------------||
|------------------------||------------------------||


  PM----------------------------------------------|
  E E E E E E E E E E E E   E E E E E E E E E E E E
|-------------------------|-------------------------|
|-------------------------|-------0-----------0-----|
|-------------------------|-------------------------|
|-------------------------|-------------------------|
|-2p0-2p0-2p0-2p0-2p0-2p0-|-2p0-2---2p0-2p0-2---4p2-|
|-2p0-2p0-2p0-2p0-2p0-2p0-|-2p0-2---2p0-2p0-2---4p2-|


  PM-------------------------
  E E E  E  E E E E E E E E
|---------------------------|
|-------(0)-----------------|
|--------0------------------|
|---------------------0-----|
|-5p0-5-----5p0-5p0-5---5p0-|
|-5p0-5-----5p0-5p0-5---5p0-|


                   To Coda
 -------------------------------------------------|
  E E E E E E E E E E E E   E E E E E E E E E E E E
|-------------------------|-------------------0------|
|-------------------0-0---|-------0-----------0------|
|-------0-----------0-0---|-------0------------------|
|-----------------------0-|-2-0-2--------------------|
|-5p0-5---5p0-5p0-5-------|-----2---2p0-2p0-2---2p0--|
|-5p0-5---5p0-5p0-5-------|---------2p0-2p0-0---2p0--|


  PM----------------------------------------|
  E E E E E E E E E E E E   E E E E E E E E E E E E   Q  E E E E Q.   Q.
|-------0-----------0-----|-------------------------|-----------------------||
|-------0-----------0-----|-------------------------|------------3----3-----||
|-------------------------|-------0-----------0-----|-x--5-5p0h5-2----2-----||
|-------------------------|-------0-----------0-----|-x--5-5p0h5-0----0-----||
|-2p0-2---2p0-2p0-2---4p0-|-5p0-5---5p0-5p0-5---5p0-|-x--3-3p0h3------0-----||
|-2p0-0---2p0-2p0-2---4p0-|-5p0-5---5p0-5p0-5---5p0-|-----------------0-----||


 Chorus
  $$
       PM--|      PM--|        PM--|                  PM--|      PM--|
  Q  E E E E Q  E E E E   Q  E E E E Q.   Q.     Q  E E E E Q  E E E E
|-----------------------|----------------------|------------------------|
|-----------------------|----------------------|------------------------|
|-4--4-x-x-x-4--4-x-x-x-|-4--4-x-x-x-7----2----|-4--4-x-x-x-4--4-x-x-x--|
|-2--2-x-x-x-2--2-x-x-x-|-2--2-x-x-x-5----0----|-2--2-x-x-x-2--2-x-x-x--|
|-2--2-x-x-x-2--2-x-x-x-|-2--2-x-x-x-5----0----|-2--2-x-x-x-2--2-x-x-x--|
|-2--2-x-x-x-2--2-x-x-x-|-2--2-x-x-x-5----0----|-2--2-x-x-x-2--2-x-x-x--|


       PM--|                   PM--|      PM--|        PM--|
  Q  E E E E Q  E E E E   Q  E E E E Q  E E E E   Q  E E E E Q.   E E E
|-----------------------|-----------------------|------------------------|
|-----------------------|-----------------------|------------------------|
|-4--4-x-x-x-5--5-2-2-2-|-4--4-x-x-x-4--4-x-x-x-|-4--4-x-x-x-7----2-2-2--|
|-2--2-x-x-x-3--3-0-0-0-|-2--2-x-x-x-2--2-x-x-x-|-2--2-x-x-x-5----0-0-0--|
|-2--2-x-x-x-3--3-0-0-0-|-2--2-x-x-x-2--2-x-x-x-|-2--2-x-x-x-5----0-0-0--|
|-2--2-x-x-x-3--3-0-0-0-|-2--2-x-x-x-2--2-x-x-x-|-2--2-x-x-x-5----0-0-0--|


                                   To Dbl. Coda
       PM--|      PM--|        PM--|
  Q  E E E E Q  E E E E   Q  E E E E  Q.   E E E
|-----------------------|------------------------||
|-----------------------|------------------------||
|-4--4-x-x-x-4--4-x-x-x-|-4--4-x-x-x-12----2-2-2-||
|-2--2-x-x-x-2--2-x-x-x-|-2--2-x-x-x-10----0-0-0-||
|-2--2-x-x-x-2--2-x-x-x-|-2--2-x-x-x-10----0-0-0-||
|-2--2-x-x-x-2--2-x-x-x-|-2--2-x-x-x-10----0-0-0-||


                                                                D.S. al Coda
  W.              +H.      Q.   Q.     W.              +H.      Q.   Q.
|---------------|--------------------|---------------|-----------------------||
|---------------|--------------------|---------------|-----------------------||
|---------------|--------------------|---------------|-----------------------||
|-2-------------|-(2)S=====5----0----|-2-------------|-(2)S=====5----0-------||
|-2-------------|-(2)S=====5----0----|-2-------------|-(2)S=====5----0-------||
|-2-------------|-(2)S=====5----0----|-2-------------|-(2)S=====5----0-------||


  &
  PM--|                     PM--|      PM--|
  Q   E E E E E E E E E E   E E E q  E E E E q  E
|-------0-----------0-----|-------0----------0----|
|-------0-----------0-----|-------0----------0----|
|-----4-------------------|--------------2--------|
|-2---2-------------------|-2p0-0------0---0------|
|---------2p0-2p0h2---2p0-|-----------------------|
|---------2p0-2p0h2---2p0-|-----------------------|
|
| Gtr III
| W.                        W.
|-------------------------|-----------------------|
|-------------------------|-----------------------|
|-------------------------|-----------------------|
|-------------------------|-----------------------|
|-7-----------------------|-5---------------------|
|-------------------------|-----------------------|


                               D.S.S. al Dbl. Coda
  PM--|      PM----|
  Q   E q  E E  E  E Q  E   E E E Q.   Q.   E E E
|-------0------------0----|--------------------------||
|-------0------------0----|-------0----3----3-3-3----||
|-------0------(0)---0----|-------0----2----2-2-2----||
|-------------------------|-5p0h5-5\---0----0-0-0----||
|-3---3------3-----3------|-5p0h5-5\---0----0-0-0----||
|-------------------------|-5p0h5-5\---0----0-0-0----||
|
| W.                        W
|-------------------------|--------------------------||
|-------------------------|--------------------------||
|-------------------------|--------------------------||
|-------------------------|--------------------------||
|-3-----------------------|--------------------------||
|-------------------------|--------------------------||


 Instrumental Break
  &&
  Q.   E E E  E  E  E  Q.
|---------------------------|
|---------------------------|
|------2-2-2----------------|
|-0----0-0-0-10-10-10-------|
|-0----0-0-0-10-10-10-12\---|

|-0----0-0-0-10-10-10-12\---|


  E E E Q  +E   E  E  E  Q   E   E Q  E E E  E  E  E  Q.
|------------------------------|----------------------------|
|-----------------------15\--3-|-3----3-3-3-----------------|
|-4-4-4-4--(4)S12-12-12-14\--2-|-2----2-2-2-----------------|
|-2-2-2-2--(2)S10-10-10-12\--0-|-0-0--0-0-0-10-10-10--------|
|-2-2-2-2--(2)S10-10-10-12\--0-|-0-0--0-0-0-10-10-10-12\----|
|-2-2-2-2--(2)S10-10-10-12\--0-|-0-0--0-0-0-10-10-10-12\----|


  E E E Q  E  E  E  E  Q.
|-------------------------------|
|-5-5-5-5-----------------------|
|-4-4-4-4-----------------------|
|-2-2-2-2--2S10-10-10-12b12.5---|
|-2-2-2-2--2S10-10-10-12b12.5---|
|-2-2-2-2--2S10-10-10-12b12.5---|


  E E E E E E  E  E  E  Q.     Q  E E E E   E  E  E  E  E  E
|----------------------------|--------------------------------|
|-3-3-3-3-3-3----------------|-5--5-5-5-5/-13-13-13-15-15-15--|
|-2-2-2-2-2-2-12-12-12-------|-4--4-4-4-4/-12-12-12-14-14-14--|
|-0-0-0-0-0-0-10-10-10-12\---|-2--2-2-2-2/-10-10-10-12-12-12--|
|-0-0-0-0-0-0-10-10-10-12\---|-2--2-2-2-2/-----------------0--|
|-0-0-0-0-0-0-10-10-10-12\---|-2--2-2-2-2/-----------------0--|


   E  E  E  E  E  E  E  E  E  Q   E    W.
|------------------------------------|---------------|
|-15-15-15-15-15-13-13-13-13-15--13\-|-5-------------|
|-14-14-14-14-14-12-12-12-12-14--12\-|-4-------------|
|-12-12-12-12-12-10-10-10-10-12--10\-|-2-------------|
|--0--------0------------------------|-2-------------|
|--0--------0------------------------|-2-------------|


  +W.              +W.              +H.       H.
|----------------|----------------|-----------------|
|-(5)------------|-(5)------------|-(5)-------------|
|-(4)------------|-(4)------------|-(4)-------------|
|-(2)------------|-(2)------------|-(2)------[2]----|
|-(2)------------|-(2)------------|-(2)-------------|
|-(2)------------|-(2)------------|-(2)-------------|


  Gtr II
   H.       +Q.    +Q.      W.               H.       +Q.    +Q.      W.
|------------------------|----------------|------------------------|--------||
|------------------------|----------------|------------------------|--------||
|------------------------|----------------|------------------------|--------||
|-12-------(12)---(12)s==|=11\------------|-12-------(12)---(12)s==|=11\----||
|------------------------|----------------|------------------------|--------||
|------------------------|----------------|------------------------|--------||
|
| Gtr I
| +W.                      +W.              +W.                      +W.
|------------------------|----------------|------------------------|--------||
|------------------------|----------------|------------------------|--------||
|------------------------|----------------|------------------------|--------||
|-(2)--------------------|-(2)------------|-(2)--------------------|-(2)----||
|------------------------|----------------|------------------------|--------||
|------------------------|----------------|------------------------|--------||


 Bridge
  W.              W.               W.              W.
|---------------|---------------|----------------|-------|
|---------------|---------------|----------------|-------|
|---------------|---------------|----------------|-------|
|-9-------------|-7-------------|-10-------------|-9-----|
|---------------|---------------|----------------|-------|
|---------------|---------------|----------------|-------|


  Gtr III
  W.              W.              W.              H.      H.            W.
|---------------|---------------|---------------|---------------------|-------|
|-5-------------|-3-------------|-3-------------|-7-------------------|-------|
|-4-------------|-2-------------|-0-------------|---------7-----------|-4-----|
|---------------|---------------|---------------|-4-------------------|-------|
|---------------|---------------|---------------|---------5-----------|-2-----|
|---------------|---------------|---------------|---------------------|-------|
|
| Gtr II
| W.              W.              W.              H.      Q.   +Q.      W.
|---------------|---------------|---------------|---------------------|-------|
|---------------|---------------|---------------|---------------------|-------|
|---------------|---------------|---------------|---------------------|-------|
|-9-------------|-7-------------|-5-------------|-4-------5----(5)\---|-2-----|
|---------------|---------------|---------------|---------------------|-2-----|
|---------------|---------------|---------------|---------------------|-2-----|


                                       G
  +W.               H.       Q.   Q.
|----------------|---------------------|
|----------------|---------------------|
|-(4)------------|----------<4>--------|
|----------------|---------------------|
|-(2)------------|---------------------|
|----------------|---------------------|
|
| +W.              +W.
|----------------|---------------------|
|----------------|---------------------|
|----------------|---------------------|
|-(2)------------|-(2)-----------------|
|-(2)------------|-(2)-----------------|
|-(2)------------|-(2)-----------------|


 tr I
   <
            |--3---|
   H.      +Q.  Q. Q.   W.               W.
|---------------------|---------------|--------|
|---------------------|---------------|--------|
|---------------------|---------------|--------|
|--2-------(2)--2s=3s=|=5-------------|--5-----|
|---------------------|---------------|--------|
|---------------------|---------------|--------|
|
| +H.       H.          W.              +W.
|---------------------|---------------|--------|
|---------------------|---------------|--------|
|---------------------|---------------|--------|
|-(2)-------2/--------|-5-------------|-(5)----|
|-(2)-------2/--------|-5-------------|-(5)----|
|-(2)-------2/--------|-5-------------|-(5)----|


                            |-3--|
  +W.               H.      H.   Q.   W.              +W.              +W.
|----------------|------------------|---------------|----------------|--------|
|----------------|------------------|---------------|----------------|--------|
|----------------|------------------|---------------|----------------|--------|
|-(5)------------|--5-------5s===4s=|=2-------------|-(2)------------|-(2)----|
|----------------|----------5s===4s=|=2-------------|-(2)------------|-(2)----|
|----------------|------------------|---------------|----------------|--------|
|
| +W.              +H.      H.        W.              +W.              +W.
|----------------|------------------|---------------|----------------|--------|
|----------------|------------------|---------------|----------------|--------|
|----------------|------------------|---------------|----------------|--------|
|-(5)------------|-(5)------5s======|=2-------------|-(2)------------|-(2)----|
|-(5)------------|-(5)------5s======|=2-------------|-(2)------------|-(2)----|
|-(5)------------|-(5)------5s======|=2-------------|-(2)------------|-(2)----|


            |--3--|
  +H.      +Q. Q. Q.   W.              +W.
|--------------------|---------------|----------------|
|--------------------|---------------|----------------|
|--------------------|---------------|----------------|
|-(2)------(2)-2s=4s=|=5-------------|-(5)------------|
|-(2)------(2)-2s=4s=|=5-------------|-(5)------------|
|--------------------|---------------|----------------|
|
| +H.       H.         W.              +W.
|--------------------|---------------|----------------|
|--------------------|---------------|----------------|
|--------------------|---------------|----------------|
|-(2)-------2s=======|=5-------------|-(5)------------|
|-(2)-------2s=======|=5-------------|-(5)------------|
|-(2)-------2s=======|=5-------------|-(5)------------|


                             |----3----|
  +W.               H.       H.        Q.
|----------------|-------------------------|
|----------------|-------------------------|
|----------------|-------------------------|
|-(5)------------|--5--------5s========4s==|
|-(5)------------|--5--------5s========4s==|
|----------------|-------------------------|
|
| +W.              +H.      +Q   E +Q.
|----------------|-------------------------|
|----------------|-------------------------|
|----------------|-------------------------|
|-(5)------------|-(5)------(5)--5-(5)s====|
|-(5)------------|-(5)------(5)--5-(5)s====|
|-(5)------------|-(5)------(5)--5-(5)s====|


  H.      H.        +W.
|-----------------|----------------|
|-----------------|----------------|
|-----------------|----------------|
|-2---------------|----------------|
|-2-------2-------|-(2)------------|
|-----------------|----------------|
|
| W.                +W.
|-----------------|----------------|
|-----------------|----------------|
|-----------------|----------------|
|-2---------------|-(2)------------|
|-2---------------|-(2)------------|
|-2---------------|-(2)------------|

[ Tab from: http://www.guitartabs.cc/tabs/t/tool/aenema_tab.html ]
  +W.                   +H.      Q.   +Q.
|---------------------|-----------------------|
|---------------------|-----------------------|
|---------------------|-----------------------|
|---------------------|-----------------------|
|-(2)-----------------|-(2)------2----(2)s====|
|---------------------|----------2----(2)s====|
|
|  H.       +H.         +H.      Q.   +Q.
|---------------------|-----------------------|
|---------------------|-----------------------|
|---------------------|-----------------------|
|--2-------([2])------|-(2)------2----(2)s====|
|--2--------(2)-------|-(2)------2----(2)s====|
|--2--------(2)-------|-(2)------2----(2)s====|


  W.                    +W.
|--------------------|------------------|
|--------------------|------------------|
|--------------------|------------------|
|--------------------|------------------|
|-5------------------|--(5)-------------|
|-5------------------|--(5)-------------|
|
| H.       +H.          +W.
|--------------------|------------------|
|--------------------|------------------|
|-5-------([5])------|-([5])------------|
|-5-------([5])------|--(5)-------------|
|-5--------(5)-------|--(5)-------------|
|-5--------(5)-------|--(5)-------------|


   +W.               +W.
|------------------|-------------------------||
|------------------|-------------------------||
|------------------|-------------------------||
|------------------|-------------------------||
|--(5)-------------|-(5)---------------------||
|--(5)-------------|-(5)---------------------||
|
|  +W.               +H.      Q  E +Q   E
|------------------|-------------------------||
|------------------|-------------------------||
|-([5])------------|-------------------------||
|--(5)-------------|-(5)---------------------||
|--(5)-------------|-(5)------3s=5-(5)--x----||
|--(5)-------------|-(5)----------------x----||


 Guitar Solo
  Gtr II
  Q  E Q  E Q.   +Q.      Q  E Q  E H.
|-----------------------|-------------------|
|-----------------------|-------------------|
|-----------9----(9)\---|-----------9-------|
|-7s=9-7s=9-------------|-7s=9-7s=9---------|
|-----------------------|-------------------|
|-----------------------|-------------------|


  Q  E Q  E Q.   +Q   E   Q  E Q  E Q.   Q.
|-----------------------|----------------------|
|-----------------------|----------------------|
|-----------9----(9)s=7-|-----------9----9\----|
|-7s=9-7s=9-------------|-7s=9-7s=9------------|
|-----------------------|----------------------|
|-----------------------|----------------------|


   H.       H.         H.       Q.    +Q.
|-------------------|------------------------|
|-------------------|------------------------|
|-12-------12-------|-12-------12----(12)\---|
|-12----------------|----------12----(12)\---|
|-------------------|------------------------|
|-------------------|------------------------|


   Q.    Q.    H.         H.       H.        Q  E Q  E H.
|----------------------|-------------------|-----------------|
|----------------------|----------12\------|-----------------|
|-------------12-------|-------------------|-----------9\----|
|----------------------|-12----------------|-7s=9-7s=9-------|
|-12----12-------------|-------------------|-----------------|
|----------------------|-------------------|-----------------|


  Q  E +Q   E Q.   Q.     Q.   Q  E H.
|-----------------------|-------------------|
|-----------------------|-------------------|
|-------------9----9\---|-9----9--9---------|
|-7s=9-(9)--9-----------|-----------9-------|
|-----------------------|-------------------|
|-----------------------|-------------------|


   Q.    Q  E  Q.    Q.      Q.    Q   E  Q.    Q.
|-------------------------|---------------------------|
|-------------------------|--------------12----12-----|
|-12----12s=9-14----14\---|--------------12----12-----|
|-------------------------|-12----12--12--------------|
|-------------------------|---------------------------|
|-------------------------|---------------------------|


   +H.       Q.   Q.      H.       H.         H.       Q.    +Q.
|----------------------|-------------------|----------12----(12)\----|
|-(12)------12\--------|-12\------12\------|-12\------12----(12)\----|
|-(12)------12\---7----|-12\------12\------|-12\------12----(12)\----|
|----------------------|-12\------12\------|-12\---------------------|
|----------------------|-------------------|-------------------------|
|----------------------|-------------------|-------------------------|


  Gtr I
  PM-------------------------------------------------
  E E E E E E E E E E E E   E E E E E E E E E E E E
|-------------------------|-------------------------|
|-------------------------|-------------------------|
|-------------------------|-------------------------|
|-------------------------|-------------------------|
|-2-2-2-2-2-2-2-2-2-2-2-2-|-2-2-2-2-2-2-2-2-2-2-2-2-|
|-2-2-2-2-2-2-2-2-2-2-2-2-|-2-2-2-2-2-2-2-2-2-2-2-2-|


 -----------------------|
  E E E E E E E E E E E E   E E E E E E E E E E E E
|-------------------------|-----------------------------||
|-------------------------|-----------5-5-5-5-5-5-------||
|-------------------------|-------4-4-4-4-4-4-4-4-4/----||
|-------------------------|-2-2-2-2-2-2-2-2-2-2-2-2/----||
|-2-2-2-2-2-2-2-2-2-2-2-2-|-2-2-2-2-2-2-2-2-2-2-2-2/----||
|-2-2-2-2-2-2-2-2-2-2-2-2-|-2-2-2-2-2-2-2-2-2-2-2-2/----||


 Bridge
  q  E Q.   H.        W              W
|-------------------|--------------|------|
|-8-----------------|--------------|------|
|-7-----------------|--------------|------|
|-5-----------------|--------------|------|
|-5-----------------|--------------|------|
|-5-----------------|--------------|------|


----------------------| PM-------------------------
   H.       H.         +W.
|-------------------|-----------------------------|
|----------<5>------|-(<5>)-----------------------|
|----------<5>------|-(<5>)-----------------------|
|-<5>---------------|-----------------------------|
|-------------------|---2---2-2-2-2-2-2-2-2-2-2-2-|
|-------------------|---2---2-2-2-2-2-2-2-2-2-2-2-|
                        E   E E E E E E E E E E E


 -------------------------------|
   +W.
|----------------------------------|
|-(<5>)----------------------------|
|-(<5>)----------------------------|
|----------------------------------|
|---2---2-2-2-2-2-2-2-2-2-2-2-2-2--|
|---2---2-2-2-2-2-2-2-2-2-2-2-2-2--|
    E   E E E E E E S S E E S S E


  PM--------|
  E E E E E E E E E E E E   E E E E E E E E E E E E   q  E Q.   H.
|-------------------------|-------0-0-0-0-0-0-0-0---|-----------------|
|-------------------------|-------0-0-0-0-0-0-0-0---|-8---------------|
|-------------------------|-------4-4-4-4-4-4-4-4-7-|-7---------------|
|---------------2---2-2-1-|-2-2-2-2-2-2-2-2-2-2-2-5-|-5---------------|
|-2-2-2-2-2-2-2-2-2-2-2-1-|-2-2-2-2-2-2-2-2-2-2-2-5-|-----------------|
|-2-2-2-2-2-2-2---2-------|-2-2-2-2-2-2-2-2-2-2-2-5-|-----------------|


  E E E E E E E E E E E E   E E E E E E E E E E E E   E E E E E E E E E E E E
|-------------------------|-------------------------|--------------------------|
|-x-x-x-x-x-x-x-x-x-x-x-x-|-x-x-x-x-x-x-x-x-x-x-x-x-|-x-x-x-x-x-x-x-x-x-x-x-x--|
|-x-x-x-x-x-x-x-x-x-x-x-x-|-x-x-x-x-x-x-x-x-x-x-x-x-|-x-x-x-x-x-x-x-x-x-x-x-x--|
|-x-x-x-x-x-x-x-x-x-x-x-x-|-x-x-x-x-x-x-x-x-x-x-x-x-|-x-x-x-x-x-x-x-x-x-x-x-x--|
|-------------------------|-------------------------|--------------------------|
|-------------------------|-------------------------|--------------------------|


  PM-----------------------------------------------------
  E  E  E E E E E E E E E E   E E E E E E E E E E E S S
|---(2)---------------------|---------------------------|
|---------------------------|---------------------------|
|---------------------------|---------------------------|
|-2-----2-------------------|-------------------2-2-2-2-|
|-2-----2-2-2-2-2-2-2-2-----|-------2-2-2-2-2-2-2-2-2-2-|
|-2-----2-2-2-2-2-2-2-2-2-2-|-2-2-2-2-2-2-2-2-2-2-2-2-2-|


 ---------------------------|
  E S S E E E E E S S E E E E
|-----------------------------|
|-----------------------------|
|-----------------------------|
|-2-2-2-2-2-2-2-2-2-2-2-2-2-2-|
|-2-2-2-2-2-2-2-2-2-2-2-2-2-2-|
|-2-2-2-2-2-2-2-2-2-2-2-2-2-2-|


  E E E E E E E E E E E E   Q  E E Q  +Q   E E E E   Q.   Q  E E E E E E   E
|---------------0-0-0-0---|------------------------|--------------------------|
|---------------0-0-0-0---|-8------8--(8)----8---8-|---------8-8-8-8-8-8-/19--|
|-4-4-4-4-4-4-4-4-4-4-4-7-|-7--7-7-7--(7)----7-7-7-|-7----7--7-7-7-7-7-7-/18--|
|-2-2-2-2-2-2-2-2-2-2-2-5-|-5--5-5-5--(5)--5-5-5-5-|-5----5--5-5-5-5-5-5-/16--|
|-2-2-2-2-2-2-2-2-2-2-2-5-|-5--5-5---------5---5---|-0----5----5-5-5-5-5------|
|-2-2-2-2-2-2-2-2-2-2-2-5-|-5--5-5---------5-------|--------------------------|


   E  E  E  E  E  E  E  E  E  E Q
|----------------------------------|
|-20-20-20-20-20-20-20-20-20-20-0--|
|-19-19-19-19-19-19-19-19-19-19-0--|
|-17-17-17-17-17-17-17-17-17-17-0--|
|----------------------------------|
|----------------------------------|


  E E E E E  E  E  E  E  E  E E   q.   Q   E  E  E  E  Q.
|-----------------------------0-|----------------------------|
|-8-8-8-8-8S20-20-20-20-20-20-0-|-5----5s=17-17-17-17-17\----|
|-7-7-7-7-7S19-19-19-19-19-19---|-4----4s=16-16-16-16-16\----|
|-5-5-5-5-5S17-17-17-17-17-17---|-2----2---------------------|
|-------------------------------|-2----2---------------------|
|-------------------------------|-0----0---------------------|


  E E E E E   E  E  E  E  E Q
|------------------------------|
|-5-5-5-5-5-/17-17-17-17-17----|
|-4-4-4-4-4-/16-16-16-16-16-0--|
|-2-2-2-2-2-----------------0--|
|-2-2-2-2-2-----------------0--|
|-2-2-2-2-2--------------------|


  4:3
  Q Q Q    E  E  E  E E E E   E E E E E   E  Q   E  Q.
|---------------------------|-----------------------------||
|-----5------17-17-17-------|-5-5-5-5-5-----17--17-17\----||
|-----4--/16-16-16-16-------|-4-4-4-4-4-/16-16--16-16\----||
|-2p0-2---------------0-0-0-|-2-2-2-2-2-------------------||
|-2p0-2---------------0-0-0-|-2-2-2-2-2-------------------||
|-2---2---------------------|-2-2-2-2-2-------------------||


                                                             |---3---|
  W.              +W.              +W.              H.      +Q.  Q.  Q.
|---------------|----------------|----------------|------------------------|
|-8-------------|-(8)------------|-(8)------------|-0-------(0)--8---------|
|-7-------------|-(7)------------|-(7)------------|-0-------(0)------7-----|
|-5-------------|-(5)------------|-(5)------------|-0-------(0)------------|
|-5-------------|-(5)------------|-(5)------------|------------------------|
|-5-------------|-(5)------------|-(5)------------|------------------------|


                           |---3---|
  W.              H.      +Q.  Q.  Q.
|---------------|----------------------|
|---------------|-8-------(8)--8-------|
|---------------|-7-------(7)------7---|
|-5-------------|-5-------(5)----------|
|---------------|-5-------(5)----------|
|---------------|-5-------(5)----------|


  W.               Q  E +Q.   Q.   +Q.
|---------------|--------------------------|
|---------------|--------------------------|
|---------------|-^7--7-(7)----------------|
|-5-------------|-^5--5-(5)----------------|
|---------------|-^5--5-(5)---5----(5)/----|
|---------------|-^5--5-(5)----------------|


   ~~~
   Q.    Q   E  Q   E  +E   E  E
|--------------------------------|
|--------------------------------|
|--------------------------------|
|--------------------------------|
|-14----14--14-14--14-(14)-14s12-|
|--------------------------------|


                                    ~~~
   Q.    Q   E  Q   E  +E   E  E    Q.    Q   E  Q   E  E  E E
|--------------------------------|------------------------------|
|--------------------------------|------------------------------|
|--------------------------------|------------------------------|
|--------------------------------|-10----10--10-10--10-10-10-9--|
|-12----12--12-12--12-(12)-12-12-|------------------------------|
|--------------------------------|------------------------------|


  ~~
  Q.   Q  E A     +Q   E +E  E +E
|----------------------------------|
|----------------------------------|
|----------------------------------|
|-9----9--9-9b10==(9)--9-(9)-9r(9)-|
|----------------------------------|
|----------------------------------|


  ~~
  Q.   Q  E Q  E +E  Q    E Q  Q  E Q  E +E  E E
|-----------------------|------------------------|
|-----------------------|------------------------|
|-----------------------|------------------------|
|-9----9--9-9--9-(9)-9--|-9s7--7--7-7--7-(7)-7-7-|
|-----------------------|------------------------|
|-----------------------|------------------------|


                                          Outro
  Q.   Q  E Q  E E E E   W.                E Q  Q  E Q.   E E E
|----------------------|---------------||------------------------|
|----------------------|---------------||o-----------------------|
|------4-------4-4-4-4-|-4-------------||------------------------|
|-5-------5-5--5-5-5-5-|-4-------------||--2-2--2p=0-0----0-0-0--|
|----------------------|---------------||o-2-2--2p=0-0----0-0-0--|
|----------------------|---------------||--2-2--2p=0-0----0-0-0--|


  Q.   Q.   Q.   +E  E E   Q.   E E E  Q.   E E E   Q.   E E E  Q   E E E E   3x
|------------------------|------------------------|---------------------------||
|------------------------|------------12\---------|------------12--12--------o||
|------------------------|------------11\---------|------------11--11---------||
|-5----5----0----(0)-0-0-|-9----9-9-9--9\---0-0-0-|-9----9-9-9--9---9-0-0-0---||
|-5----5----0----(0)-0-0-|-9----9-9-9--9\---0-0-0-|-9----9-9-9--9---9-0-0-0--o||
|-5----5----0----(0)-0-0-|-9----9-9-9--9\---0-0-0-|-9----9-9-9--9---9-0-0-0---||


                        ~~
  Q.   Q  E E Q  Q  E   Q.   Q.   Q.   E E E   Q.   E E E  Q.   E E E
|---------------------|----------------------|-------------------------|
|-5----5----3-3--3s=8-|-8----8\---3----3-3-3-|------------12\----------|
|-4----4----2-2--2s=7-|-7----7\---2----2-2-2-|------------11\----------|
|-2----2p=0-0-0--0s=5-|-5----5\---0----0-0-0-|-9----9-9-9--9\---0-0-0--|
|-2----2p=0-0-0--0s=5-|-5----5\---0----0-0-0-|-9----9-9-9--9\---0-0-0--|
|-2----2p=0-0-0--0s=5-|-5----5\---0----0-0-0-|-9----9-9-9--9\---0-0-0--|


  Q.   E E E  Q.   E E E   Q.   E E E  Q.   E E E
|------------------------|------------------------|
|------------12\---------|------------12\---------|
|------------11\---------|------------11\---------|
|-9----9-9-9--9\---0-0-0-|-9----9-9-9--9\---0-0-0-|
|-9----9-9-9--9\---0-0-0-|-9----9-9-9--9\---0-0-0-|
|-9----9-9-9--9\---0-0-0-|-9----9-9-9--9\---0-0-0-|


                  /0.25\
  Q.   E E E  Q   E       +E   Q
|----------------------------------||
|------------12--12------(12)-12---||
|------------11--11------(11)-11---||
|-9----9-9-9--9---9-------(9)--9---||
|-9----9-9-9--9---9-------(9)--9---||
|-9----9-9-9--9---9-------(9)--9---||


    |------3------|               |------3-------|
    H.    H.      H.       8x     H.     H.      H.       3x W.
||-------------------------||-||--------------------------||-------*|
||o-----------------------o||-||o------------------------o||-------*|
||-------------------------||-||--------------------------||-------*|
||--9-----9-------9b10-----||-||--9------9-------9--------||-9-----*|
||o-9-----9-------9b10----o||-||o-9------9-------9-------o||-9-----*|
||--9-----9-------9b10-----||-||--9------9-------9--------||-9-----*|
|
|   Gtr II
|   H.        H.           8x     Q.   E Q   Q.     Q.    3x W.
||-------------------------||-||--------------------------||-------*|
||o-----------------------o||-||o------------------------o||-------*|
||--2----------------------||-||--2------2---2------2-----||-2-----*|
||--6----------------------||-||--6------6---6------6-----||-6-----*|
||o-5---------------------o||-||o-5----5-----5------5----o||-5-----*|
||-------------------------||-||--------------------------||-------*|
Comments