Tool - 4 Degrees Chords & Tabs

 

4 Degrees Chords & Tabs

Tool Chords & Tabs

Version: 4 Type: Tab 0 ratings
1 star 2 stars 3 stars 4 stars 5 stars
comments

4 Degrees Tab

   
4 Degrees by Tool

Tabbed by: Radiohead293

Tuning: Drop D

0:00
e|---------------------------------|
B|-5-----5---5-5-----5---5-6-5-5-5-|
G|-4-----4---4-4-----4---4-5-4-4-4-|
D|-2-----2---2-2-----2---2-3-2-2-2-|
A|-2-----2---2-2-----2---2-3-2-2-2-|
D|-2-----2---2-2-----2---2-3-2-2-2-|

e|---------------------------------|
B|-------5---5-5-----5---5-6-5-5-5-|
G|-------4---4-4-----4---4-5-4-4-4-|
D|-0h2---2---2-2-----2---2-3-2-2-2-| x3
A|-0h2---2---2-2-----2---2-3-2-2-2-|
D|-0h2---2---2-2-----2---2-3-2-2-2-|

0:12
e|----------------------------------------------|
B|-/10--1010x-8---/13---8---8-8-x-6---6---6-6-6-|
G|-/9---9-9-x-7---/12---7---7-7-x-5---5---5-5-5-|
D|-/7---7-7-x-5---/10---5---5-5-x-3---3---3-3-3-|
A|-/7---7-7-x-5---/10---5---5-5-x-3---3---3-3-3-|
D|-/7---7-7-x-5---/10---5---5-5-x-3---3---3-3-3-|

e|----------------------------------------------|
B|-/10--1010x-8---/13---8---8-8-x-6-------------|
G|-/9---9-9-x-7---/12---7---7-7-x-5-------------|
D|-/7---7-7-x-5---/10---5---5-5-x-3-------------|
A|-/7---7-7-x-5---/10---5---5-5-x-3-------------|
D|-/7---7-7-x-5---/10---5---5-5-x-3-------------|

0:22 distortion on
e|---------------------------------|------------------------------------|
B|---------------------------------|------------------------------------|
G|---------------------------------|------------------------------------|
D|-0-2---2---x-0-2---2---2-3-3-2-0-|-0-2---2---x-0-2---2---x-3----------| x2 
A|-0-2---2---x-0-2---2---2-3-3-2-0-|-0-2---2---x-0-2---2---x-3----------|
D|-0-2---2---x-0-2---2---2-3-3-2-0-|-0-2---2---x-0-2---2---x-3----------|
                         m m m m m 

e|---------------------------------|
B|---------------------------------|
G|---------------------------------|
D|---------------------------------| x3
A|---------------------------------|
D|-0-2---2---x-2-----2---2-3-3-2-0-|
   m m   m     m     m   m m m m m 

e|------------------------------------------|
B|------------------------------------------|
G|------------------------------------------|
D|------------------------------------------| 
A|------------------------------------------|
D|-0-2---2---x-2-----2---/10-----------b----|
   m m   m           

0:48
e|---------------------------------|------------------------------------|
B|---------------------------------|------------------------------------|
G|---------------------------------|------------------------------------|
D|-0-2---2---x-0-2---2---2-3-3-2-0-|-0-2---2---x-0-2---2---x-3----------| x2 
A|-0-2---2---x-0-2---2---2-3-3-2-0-|-0-2---2---x-0-2---2---x-3----------|
D|-0-2---2---x-0-2---2---2-3-3-2-0-|-0-2---2---x-0-2---2---x-3----------|
         m     m m   m   m m m m m         m           m     

e|---------------------------------|
B|---------------------------------|
G|---------------------------------|
D|---------------------------------| x3
A|---------------------------------|
D|-0-2---2---x-2-----2---2-3-3-2-0-|
   m m   m     m     m   m m m m m 

e|---------------------------------|
B|---------------------------------|
G|---------------------------------|
D|---------------------------------| 
A|---------------------------------|
D|-0-2---2---x-2-----2*--2*3*3*2*0*|
   m m   m           

1:11
e|---------------------------------|
B|---------------------------------|
G|---------------------------------|
D|---------------------------------| x4
A|-------2---2---------------------|
D|-0h2---------2-----2*2*0*3*3*2*0*|

1:22
e|----------------------------------------------|
B|-/10--1010x-8---/13---8---8-8-x-6---6---6-6-6-|
G|-/9---9-9-x-7---/12---7---7-7-x-5---5---5-5-5-|
D|-/7---7-7-x-5---/10---5---5-5-x-3---3---3-3-3-| x3
A|-/7---7-7-x-5---/10---5---5-5-x-3---3---3-3-3-|
D|-/7---7-7-x-5---/10---5---5-5-x-3---3---3-3-3-|

1:37
e|---------------------------------|
B|-5-----5---5-5-----5---5-6-5-5-5-|
G|-4-----4---4-4-----4---4-5-4-4-4-|
D|-2-----2---2-2-----2---2-3-2-2-2-|
A|-2-----2---2-2-----2---2-3-2-2-2-|
D|-2-----2---2-2-----2---2-3-2-2-2-|

e|---------------------------------|
B|-------5---5-5-----5---5-6-5-5-5-|
G|-------4---4-4-----4---4-5-4-4-4-|
D|-0h2---2---2-2-----2---2-3-2-2-2-| x2
A|-0h2---2---2-2-----2---2-3-2-2-2-|
D|-0h2---2---2-2-----2---2-3-2-2-2-|

e|---------------------------------|
B|-------5---5-5-----5---5-6-------|
G|-------4---4-4-----4---4-5-------|
D|-0h2---2---2-2-----2---2-3-------|
A|-0h2---2---2-2-----2---2-3-------|
D|-0h2---2---2-2-----2---2-3-------|

1:48
e|---------------------------------|
B|---------------------------------|
G|---------------------------------|
D|---------------------------------| x3
A|---------------------------------|
D|-0-2---2---x-2-----2---2-3-3-2-0-|
   m m   m     m     m   m m m m m 

e|---------------------------------|
B|---------------------------------|
G|---------------------------------|
D|---------------------------------| 
A|---------------------------------|
D|-0-2---2---x-2-----2*--2*3*3*2*0*|
   m m   m       

1:59
e|---------------------------------|
B|---------------------------------|
G|---------------------------------|
D|---------------------------------| x4
A|-------2---2---------------------|
D|-0h2---------2-----2*2*0*3*3*2*0*|

2:11
e|----------------------------------------------|
B|-/10--1010x-8---/13---8---8-8-x-6---6---6-6-6-|
G|-/9---9-9-x-7---/12---7---7-7-x-5---5---5-5-5-|
D|-/7---7-7-x-5---/10---5---5-5-x-3---3---3-3-3-| x3
A|-/7---7-7-x-5---/10---5---5-5-x-3---3---3-3-3-|
D|-/7---7-7-x-5---/10---5---5-5-x-3---3---3-3-3-|

2:25
e|--------------------------------------------------------------------------|
B|--------------------------------------------------------------------------|
G|--------------------------------------------------------------------------|
D|-12---12-12-12-8-----8---8-8---8-8-/17---17-17-15-15-----15---15-15-15-15-|
A|-12---12-12-12-8-----8---8-8---8-8-/17---17-17-15-15-----15---15-15-15-15-|
D|-12---12-12-12-8-----8---8-8---8-8-/17---17-17-15-15-----15---15-15-15-15-|

e|--------------------------------------------------------------------------|
B|--------------------------------------------------------------------------|
G|--------------------------------------------------------------------------|
D|-10h12---12-12-12-8-----8---8-8---8-8-/17---17-17-15-15-----15b-----------|
A|-10h12---12-12-12-8-----8---8-8---8-8-/17---17-17-15-15-----15b-----------|
D|-10h12---12-12-12-8-----8---8-8---8-8-/17---17-17-15-15-----15b-----------|
[ Tab from: http://www.guitartabs.cc/tabs/t/tool/4_degrees_tab_ver_4.html ]
2:36
e|---------------------------|-----------------------------|
B|---------------------------|-----------------------------|
G|---------------------------|-----------------------------|
D|-2---2---2---2-2-0-3-3-2-0-|-0h2---2---2---2-2-2-3-------|
A|-2---2---2---2-2-0-3-3-2-0-|-0h2---2---2---2-2-2-3-------|
D|-2---2---2---2-2-0-3-3-2-0-|-0h2---2---2---2-2-2-3-------|
               m m m m m m m                 m m m 

e|-----------------------------|-------------------------------|
B|-----------------------------|-------------------------------|
G|-----------------------------|-------------------------------|
D|-0h2---2---2---2-2-0-3-3-2-0-|-0h2---2---2---2-2-2-3---------|
A|-0h2---2---2---2-2-0-3-3-2-0-|-0h2---2---2---2-2-2-3---------|
D|-0h2---2---2---2-2-0-3-3-2-0-|-0h2---2---2---2-2-2-3---------|
                 m m m m m m m                 m m m 

2:47
e|---------------------------------|
B|-5-----5---5-5-----5---5-6-5-5-5-|
G|-4-----4---4-4-----4---4-5-4-4-4-|
D|-2-----2---2-2-----2---2-3-2-2-2-|
A|-2-----2---2-2-----2---2-3-2-2-2-|
D|-2-----2---2-2-----2---2-3-2-2-2-|

e|---------------------------------|
B|-------5---5-5-----5---5-6-5-5-5-|
G|-------4---4-4-----4---4-5-4-4-4-|
D|-0h2---2---2-2-----2---2-3-2-2-2-| x3
A|-0h2---2---2-2-----2---2-3-2-2-2-|
D|-0h2---2---2-2-----2---2-3-2-2-2-|

2:58
e|----------------------------------------------|
B|-/10--1010x-8---/13---8---8-8-x-6---6---6-6-6-|
G|-/9---9-9-x-7---/12---7---7-7-x-5---5---5-5-5-|
D|-/7---7-7-x-5---/10---5---5-5-x-3---3---3-3-3-| x3
A|-/7---7-7-x-5---/10---5---5-5-x-3---3---3-3-3-|
D|-/7---7-7-x-5---/10---5---5-5-x-3---3---3-3-3-|

3:14
e|----------------------------------------------|
B|----------------------------------------------|
G|----------------------------------------------|
D|-2----------------------/9---12--11------11---| x3
A|-2----------------------/9---9---9-------9-12-|
D|-2----------------------/9---9---9-------9----|

e|----------------------------------------------|
B|-------------------------10-------------------|
G|-------------------------9--------------------|
D|-9-----------------------7--------------------|
A|-7-----------------------7--------------------|
D|-7-----------------------7--------------------|

3:36
e|----------------------------|-----------------------------|
B|----------------------------|---------------------6-------|
G|----------------------------|---------------------5-------|
D|-2-----2---2-2--------------|-2-----2---2-2-------3-------| x2
A|-2-----2---2-2--------------|-2-----2---2-2-------3-------|
D|-2-----2---2-2--------------|-2-----2---2-2-------3-------|

3:48
e|-----------------------------------|
B|-5-----5---5-5-------/18---18-18---|
G|-4-----4---4-4-------/17---17-17---|
D|-2-----2---2-2-------/15---15-15---| x8
A|-2-----2---2-2-------/15---15-15---|
D|-2-----2---2-2-------/15---15-15---|

4:10 reverb + delay
e|-------------------------------------|
B|-------------------------------------|
G|-------------------------------------|
D|-------------------------------------|
A|-------------------------------------|
D|-0h2-0h2-0h2-0h2-0h2-0h2-0h2-3-3-2-0-|
           m   m   m   m   m   m m m m  } x4
e|-------------------------------------|
B|-------------------------------------|
G|-------------------------------------|
D|-------------------------------------| 
A|-------------------------------------|
D|-0h2-0h2-0h2-0h2-0h2-0h2-0h2-3~------|
           m   m   m   m   m   

4:32
e|---------------------------------|
B|---------------------------------|
G|---------------------------------|
D|---------------------------------| x4
A|---------------------------------|
D|-0-2-0-2-2-0-2-2-0-2-2-0-3-3-2-0-|
   m m m m m m m m m m m m m m m m 

4:43
e|----------------------------------------------|
B|-/10--1010x-8---/13---8---8-8-x-6---6---6-6-6-|
G|-/9---9-9-x-7---/12---7---7-7-x-5---5---5-5-5-|
D|-/7---7-7-x-5---/10---5---5-5-x-3---3---3-3-3-| x3
A|-/7---7-7-x-5---/10---5---5-5-x-3---3---3-3-3-|
D|-/7---7-7-x-5---/10---5---5-5-x-3---3---3-3-3-|

4:57
e|-------------------------------------------------|
B|-------------------------------------------------|
G|-------------------------------------------------|
D|------7---------7------------7----/12-10~--------|
A|-7h10---10-7h10---------7h10---10----------------|
D|-------------------------------------------------|

e|------------------------------------------------------|
B|-------9----------------------------------------------|
G|--9h10---10-9h10-9~-----------9h10-9------------------|
D|---------------------10--------------10-9p7-----------|
A|--------------------------------------------10p9p8~---|
D|------------------------------------------------------|

e|------------------------------------------------|
B|------------------------------------------------|
G|-/9-----9---7-7-----7-----/7-----7---5-5b-------|
D|-/7-----7---5-5-----5-----/5-----5---3-3b-------|
A|-/7-----7---5-5-----5-----/5-----5---3-3b-------|
D|-/7-----7---5-5-----5-----/5-----5---3-3b-------|

5:22
e|----------------------------------------------------------------|
B|----------------------------------------------------------------|
G|----------------------------------------------------------------|
D|--------------------------3-2-----3-2-----3-2-0---2---2---3b----|
A|--------------------------3-2-----3-2-----3-2-0---2---2---3b----|
D|--------------------------3-2-----3-2-----3-2-0---2---2---3b----|
  volume swell, feedback

e|---------------------------------------|
B|---------------------------------------|
G|---------------------------------------|
D|-3-2-----3-2-----3-2-0---2---2---3b----| x2
A|-3-2-----3-2-----3-2-0---2---2---3b----|
D|-3-2-----3-2-----3-2-0---2---2---3b----|

e|---------------------------------------|
B|---------------------------------------|
G|---------------------------------------|
D|-3-2-----3-2-----3-2-0---2---2---2-----|
A|-3-2-----3-2-----3-2-0---2---2---2-----|
D|-3-2-----3-2-----3-2-0---2---2---2-----|

e|---------------------------------------------------------|
B|---------------------------------------------------------|
G|---------------------------------------------------------|
D|-2---2---2---------2---2---2-----------2---2---3b--------|
A|-2---2---2---------2---2---2-----------2---2-------------|
D|-2---2---2---------2---2---2-----------2---2-------------|


The end, :)


| *  pinch harmonic
| /  slide up
| \  slide down
| h  hammer-on
| p  pull-off
| ~  vibrato
| +  harmonic
| x  Mute note
Comments