Tool - 46and2 Chords & Tabs

 

46and2 Chords & Tabs

Tool Chords & Tabs

Version: 1 Type: Tab 0 ratings
1 star 2 stars 3 stars 4 stars 5 stars
comments

46and2 Tab

Here's my first tab.  

Tune down to a drop D. Or even another half step lower if you like.
Enjoy!

Fig.1
D --0 ----0---------0---------0---------0----------------------------------
A -----5------3^5------6^5------3^5------1^3---------------------------
D ----------------------------------------------------------------------------
G -----------------------------------------------------------------------------
B ----------------------------------------------------------------------------
E ------------------------------------------------------------------------


Fig. 2
D ------------------------------------------------------------------------------
A -------------------------------------------------------------------------------
D ---0-----------0------------3----------3----0------0------------------------------
G ------2------------2------------2--------------------2---------------------------
B ----------3------------1------------1----------------3---let ring-----------------------
E ------------------------------------------------------------------------
[ Tab from: http://www.guitartabs.cc/tabs/t/tool/46and2_tab.html ]
Here's the little finishing lick @ the end of fig 2.

D ------------------------------------------------------------------------------
A -------------------------------------------------------------------------------
D ----------------------------------------------------------------------------
G -------------0^2---------------------------------------------------------------
B ---3^2------------------------------------------------------------------------
E ------------------------------------------------------------------------

That's the majority of the song and here's another bit when it gets heavy.
{after fig 1}


D ------------------------------------------------------------------------------
A ---5---3----6-5---5----3---6-5----3^5--- and repeat-----------------
D ----------------------------------------------------------------------------
G ----------------------------------------------------------------------------
B ---------------------------------------------------------------------------
E ------------------------------------------------------------------------
Comments