Tool - 46 And Chords & Tabs

 

46 And Chords & Tabs

Tool Chords & Tabs

Version: 1 Type: Tab 1 rating
1 star 2 stars 3 stars 4 stars 5 stars
comments

46 And Tab

Song Title: 46 and 2
Artist:Tool
Album:Aenima


	This is one of the coolests songs on Aenima, I had been looking for the right tab for a long time and everything I found was wrong.  I finally decided to tab the intro myself.  Just listen to the song to get the timing.


It is drop D tuning as usual.  


|-------------------------------------------------------------------------|
|-------------------------------------------------------------------------|
|-------------------------------------------------------------------------|
|-------------------------------------------------------------------------|
|-------------------------------------------------------------------------|
|----------5----------3h5----------6/5---------3h5----------1h3---|
|----0----------0-------------0-------------0------------0------------|

|-------------------------------------------------------------------------|
|-------------------------------------------------------------------------|
|-------------------------------------------------------------------------|
|-------------------------------------------------------------------------|
|-------------------------------------------------------------------------|
|----------5----------3h5----------6/5---------3h5----------1h3---|
|----0----------0-------------0-------------0------------0------------|
[ Tab from: http://www.guitartabs.cc/tabs/t/tool/46_and_tab.html ]
|-------------------------------------------------------------------------|
|-------------------------------------------------------------------------|
|-------------------------------------------------------------------------|
|-------------------------------------------------------------------------|
|-------------------------------------------------------------------------|
|----------5----------3h5----------6/5---------3h5----------1h3---|
|----0----------0-------------0-------------0------------0------------|

|-------------------------------------------------------------------------|
|-------------------------------------------------------------------------|
|-------------------------------------------------------------------------|
|-------------------------------------------------------------------------|
|-------------------------------------------------------------------------|
|----------5----------3h5----------6/5---------10/9----------6/5---|
|----0----------0-------------0-------------0------------0------------|

|------------------------|-----------------------|------------------------|---------------------------------|
|------------------------|-----------------------|------------------------|---------------------------------|
|------------------------|-----------------------|------------------------|---------------------------------|
|------------------------|-----------------------|------------------------|---------------------------------|
|----5----3----6/5----|----5----3----6/5----|----5----3----6/5----|----5----3----6/5----1h3----|
|------------------------|-----------------------|------------------------|---------------------------------|


Power Chord Part

|----------------------------------------------------------------------------------|
|----------------------------------------------------------------------------------|
|----------------------------------------------------------------------------------|
|----0----12----0----10h12----0----13/12----0----10h12----8h10----|
|----0----12----0----10h12----0----13/12----0----10h12----8h10----|
|----0----12----0----10h12----0----13/12----0----10h12----8h10----|


	That is basically the whole song they just use different effects with the same riffs.I haven’t tabbed the solo yet.  I will add it once I do.  Until then keep on rocking.

Soramun
Comments