Tool - 46 And 2 Chords & Tabs

 

46 And 2 Chords & Tabs

Tool Chords & Tabs

Version: 1 Type: Tab 0 ratings
1 star 2 stars 3 stars 4 stars 5 stars
comments

46 And 2 Tab

46 & 2 by Tool...i know this tab is 100% correct, but if u have ANY comments please send them to dot.dot@dom.ath.cx
rate me!
thanks
its in drop D and the rhythm isnt too hard, but if u really want it then you can email me..im just lazy now..sorry.

e-----------------------------------------
B-----------------------------------------
G----------------------------------------- 3 times
D-----------------------------------------
A-----5----3-5---6-5---3-5---1-3----------
D--0-----0-----0-----0-----0--------------
[ Tab from: http://www.guitartabs.cc/tabs/t/tool/46_and_2_tab.html ]
e-----------------------------------------
B-----------------------------------------
G----------------------------------------- then this is at 
D----------------------5-4---------------- at the end of  
A-----5----3-5---6-5---------6-5---------- the 3 times
D--0-----0-----0-----0-----0--------------

this is played in the background

e-----------------------------------------
B-----------------------------------------
G-----------------------------------------
D-----------------------------------------
A-----------------------------------------
D-12--10--13-12-0--12--10--13-12-0--8s10--

then this really heavy distortion part

e---------------------------------------------------
B---------------------------------------------------
G---------------------------------------------------
D---------------------------------------------------
A--0--12--0--10--12--0--13--12--0--10--12--0--8--10-
D--0--12--0--10--12--0--13--12--0--10--12--0--8--10-

Comments