Too Much Damage - Come No Answers Chords & Tabs

 

Come No Answers Chords & Tabs

Too Much Damage Chords & Tabs

Version: 1 Type: Tab 0 ratings
1 star 2 stars 3 stars 4 stars 5 stars
comments

Come No Answers Tab

e-------------------------------
b-------------------------------
g--------14-14-14---------------
d--------14-14-14---------------
a--------12-12-12------8-6-4----
E---------------------6-4-8-684-
[ Tab from: http://www.guitartabs.cc/tabs/t/too_much_damage/come_no_answers_tab.html ]
e--12-------14-----------9----------
b----14---12--12----------------------
g------12---------------6----------
d---------------8------8----------
a----------------6---12------------
E-----------------4--------------
Comments