Tony Iommi - Whos Fooling Who Chords & Tabs

 

Whos Fooling Who Chords & Tabs

Tony Iommi Chords & Tabs

Version: 1 Type: Tab 0 ratings
1 star 2 stars 3 stars 4 stars 5 stars
comments

Whos Fooling Who Tab

   
-----------------------------------------------------------------------------

Tuning Info: Tune to C, Adagio, 66 beats/min., 4/4 count

Special Note:  Yep, unlike the rest of the CD, he tuned to "C" for this song.

Note:  Lyrics may not aligh with music and multiple guitar parts may not
       align due to space constraints.

Bells & Drum Intro

[f]
                       E                                 E
-----------------------------------------------------------------------|
-----------------------------------------------------------------------|
-----------------------------------------------------------------------|
-----------------------9----------------------------------9------------|
----------7------------7---------------------7------------7------------|
-0---(3)/7--6~-5---0-----7-6-5-3~--0----(3)/7--6~-5---0-----7-6-5-3~---|


-----------------------------------------------------------------------------|
-----------------------------------------------------------------------------|
-----------------------------------------------------------------------------|
-----------------------------------------------------------------------------|
----------7-----------------7-------------------7-----------------7----------|
-0---(3)/7--6~-5---0---(3)/7--6-5-3~--00---(3)/7--6~-5---0---(3)/7--6-5-3~---|
 {.................................pm....................................}
  Is the end beginning?    Apocalyptic thoughts of doom

-----------------------------------------------------------------------------|
-----------------------------------------------------------------------------|
-----------------------------------------------------------------------------|
-----------------------------------------------------------------------------|
----------7-----------------7-------------------7-----------------7----------|
-0---(3)/7--6~-5---0---(3)/7--6-5-3~--00---(3)/7--6~-5---0---(3)/7--6-5-3~---|
 {.................................pm....................................}
  They tell us not to fear, it's far too soon   He,he,he,he,he,he

                       E                                 E
-----------------------------------------------------------------------|
-----------------------------------------------------------------------|
-----------------------------------------------------------------------|
-----------------------9----------------------------------9------------|
----------7------------7---------------------7------------7------------|
-0---(3)/7--6~-5---0-----7-6-5-3~--0----(3)/7--6~-5---0-----7-6-5-3~---|
 Addicted to predictions, were the tarots wrong or right?

                       E                                 E
-----------------------------------------------------------------------|
-----------------------------------------------------------------------|
-----------------------------------------------------------------------|
-----------------------9----------------------------------9------------|
----------7------------7---------------------7------------7------------|
-0---(3)/7--6~-5---0-----7-6-5-3~--0----(3)/7--6~-5---0-----7-6-5-3~---|
 Will I wake tomorrow, and see the light?

CHOURSE

  D D    C/D           E  E   D/E
-------------------------------------------------------|
-------------------------------------------------------|
-------------------------------------------------------|
------------------5---------------------5--------------|
-12-12--10/12--5h7--7-14-14--12/14--5h77--7-5h7--------|
-10-10---8/10---------12-12--10/12---------------------|
 Watch your Mother die, and then tell us not to fight.

  D D    C/D           E  E   D/E
-------------------------------------------------------|
-------------------------------------------------------|
-------------------------------------------------------|
------------------5---------------------5--------------|
-12-12--10/12--5h7--7-14-14--12/14--5h77--7-5h7--------|
-10-10---8/10---------12-12--10/12---------------------|
 Don't you realize they're a bunch of fools

  D D    C/D           E  E   D/E
-------------------------------------------------------|
-------------------------------------------------------|
-------------------------------------------------------|
------------------5---------------------5--------------|
-12-12--10/12--5h7--7-14-14--12/14--5h77--7-5h7--------|
-10-10---8/10---------12-12--10/12---------------------|
 Speak the truth and lie, and expect us to believe

  D  D   C/D           E
--------------------------|
--------------------------|
--------------------------|
------------------5-------|
-12-12--10/12--5h7--7-14--|
-10-10---8/10---------12--|{Let chord riing for 8 count}
 Tell me, who is fooling who?

                       E                                 E
-----------------------------------------------------------------------|
-----------------------------------------------------------------------|
-----------------------------------------------------------------------|
-----------------------9----------------------------------9------------|
----------7------------7---------------------7------------7------------|
-0---(3)/7--6~-5---0-----7-6-5-3~--0----(3)/7--6~-5---0-----7-6-5-3~---|
{Guitar 1}

------------------------------------------------------------------------|
------------------------------------------------------------------------|
----------9------------9----------------------9------------9------------|
-----(5)/9--8~-7-------9--9-8-7-5~-------(5)/9--8~-7-------9-9-8-7-5~---|
-7-----------------7-----------------7------------------7---------------|
------------------------------------------------------------------------|
{Guitar 2}

-----------------------------------------------------------------------------|
-----------------------------------------------------------------------------|
-----------------------------------------------------------------------------|
-----------------------------------------------------------------------------|
----------7-----------------7-------------------7-----------------7----------|
-0---(3)/7--6~-5---0---(3)/7--6-5-3~--00---(3)/7--6~-5---0---(3)/7--6-5-3~---|
 {.................................pm....................................}
 Watch the soldier's marching.  They don't march for you or me

                       E                                 E
-----------------------------------------------------------------------|
-----------------------------------------------------------------------|
-----------------------------------------------------------------------|
-----------------------9----------------------------------9------------|
----------7------------7---------------------7------------7------------|
-0---(3)/7--6~-5---0-----7-6-5-3~--0----(3)/7--6~-5---0-----7-6-5-3~---|
{Guitar 1}

------------------------------------------------------------------------|
------------------------------------------------------------------------|
----------9------------9----------------------9------------9------------|
-----(5)/9--8~-7-------9--9-8-7-5~-------(5)/9--8~-7-------9-9-8-7-5~---|
-7-----------------7-----------------7------------------7---------------|
------------------------------------------------------------------------|
{Guitar 2}
 They're just there to kill  the   enemy

CHOURSE

  D D    C/D           E  E   D/E
-------------------------------------------------------|
-------------------------------------------------------|
-------------------------------------------------------|
------------------5---------------------5--------------|
-12-12--10/12--5h7--7-14-14--12/14--5h77--7-5h7--------|
-10-10---8/10---------12-12--10/12---------------------|
 Watch your Mother die, and then tell us not to fight.

  D D    C/D           E  E   D/E
-------------------------------------------------------|
-------------------------------------------------------|
-------------------------------------------------------|
------------------5---------------------5--------------|
-12-12--10/12--5h7--7-14-14--12/14--5h77--7-5h7--------|
-10-10---8/10---------12-12--10/12---------------------|
 Don't you realize they're a bunch of fools

  D D    C/D           E  E   D/E
-------------------------------------------------------|
-------------------------------------------------------|
-------------------------------------------------------|
------------------5---------------------5--------------|
-12-12--10/12--5h7--7-14-14--12/14--5h77--7-5h7--------|
-10-10---8/10---------12-12--10/12---------------------|
 Speak the truth and lie, and expect us to believe

  D  D   C/D           E (3:04)
--------------------------|
--------------------------|
--------------------------|
------------------5-------|
-12-12--10/12--5h7--7-14--|
-10-10---8/10---------12--|{Let chord riing for 8 count}
 Tell me, who is fooling who?

Guitar 1 fades in over E chord

BRIDGE/LEAD (3:07) 132 beats/min. feel

------------------------------------------------------------------------------|
------------------------------------------------------------------------------|
------------------------------------------------------------------------------|
------------------------------------------------------------------------------|
---5------------5--7p5p0-7p55p0------5--------5--------5--7p5p0-7p5p0---------|
-0--0h5h7-0--0h5h7-0--0h5h7----------------0--0h5h7-0--0h5h7-0--0h5h7---------|
{......................................pm.........................................}

---------------------------------------------------------|
-21~~~~---21~~~---21~~-21\(12)--10^(12--12s`10)-8--------|
-21~~~~---21~~~---21~~-21\(12)--------------------9-9~~--|
-21~~~~---21~~~---21~~-21\(12)---------------------------|
---------------------------------------------------------|
---------------------------------------------------------|
(Guitar 1)

------------------------------------------------------------------------------|
------------------------------------------------------------------------------|
------------------------------------------------------------------------------|
------------------------------------------------------------------------------|
----5-----5------5--7p5p0-7p55p0---------5--------5--------5--7p5p0-7p5p0-----|
-0--0h5h7-0--0h5h7-0--0h5h7----------------0--0h5h7-0--0h5h7-0--0h5h7---------|
{......................................pm.........................................}
(Guitar 2)

--------15-17^(19~)-15p12--15p12----------------------------------------------|
-(12)/17-----------------15-----15p12---12------------------------------------|
-------------------------------------144--14p12--12---------------------------|
-----------------------------------------------14--14p12----------------------|
-----------------------------14p12\10-12p10--10h12-10^(12`10)-----------------|
----------------------------------------------------------------------12------|(Guitar 1)

------------------------------------------------------------------------------|
------------------------------------------------------------------------------|
------------------------------------------------------------------------------|
------------------------------------------------------------------------------|
--5-----5--------5--7p5p0-7p55p0---------5--------5--------5--7p5p0-7p5p0-----|
-0--0h5h7-0--0h5h7-0--0h5h7----------------0--0h5h7-0--0h5h7-0--0h5h7---------|
......................................pm.........................................}
(Guitar 2)

---------------------------------------------------------------------|
-12---------------10---------------7----------------8-------(/12)----|
-14^(16)----------12^(14)----------9^(111)---------10^(12~~)(/14)----|
---------------------------------------------------------------------|
---------------------------------------------------------------------|
---------------------------------------------------------------------|
(Guitar 1)

------------------------------------------------------------------------------|
------------------------------------------------------------------------------|
------------------------------------------------------------------------------|
------------------------------------------------------------------------------|
----5----5----5--7p5p0-7p55p0------5--------5--------5--7p5p0-7p5p0-----------|
-0--0h5h7-0--0h5h7-0--0h5h7----------------0--0h5h7-0--0h5h7-0--0h5h7---------|
{......................................pm.........................................}
(Guitar 2)

----------------------------------5-7p55-----5-5h8p5--------------------------|
-------------------5-5h8------5-5h8-------5-8p5-5h8p5-5----8p5---------8-5-5--|
---------------------4-4h5h7--7--------------7--7p5---7p5-5-7p5-----7~(/12)---|
---------------5-5h7-------------------------------------------------------5--|
--------5---5h7-7-------------------------------------------------------------|
-(/3)5h7-5h7------------------------------------------------------------------|
(Guitar 1)

-----------15-17^(19~)-15p12--15p12------------------12-15-17^(19-19-19)/21---|
-(12)/17-17-----------------15-----15-115p12--15p12---------------------------|
--------------------------------------------14-----14p12--14p12-------12h14---|
--------------------------------------------------------14-----14p14--12h14---|
--------------------------------------------------------------------14--------|
------------------------------------------------------------------------------|
(Guitar 1)

      C            G  F#  E
----------------------------------------------------------------------------|
----------------------------------------------------------------------------|
----------------------------------------------------------------------------|
----------------------------------------------------------------------------|
------12----------17--16--14----------55--------5--------5--7p5p0-7p5p0-----|
-(5/)-10----------15--14--12--0--0h5h7--0--0h5h7-0--0h5h7-------------------|
(Guitar 2)

------------12/15-17^(19-19~)\(9)-------------17-1-20-21^(23~)---|
-----------------------------------------17-20-------------------|
-------12-14---------------------(12)/119------------------------|
-(9)/14----------------------------------------------------------|
-----------------------------------------------------------------|
-----------------------------------------------------------------|
(Guitar 1)

      C            G  F#    E    F#   G    A    E   F#   G    A    E    F#   G    A
------------------------------------------------------------------------------|
------------------------------------------------------------------------------|
------------------------------------------------------------------------------|
------------------------------------------------------------------------------|
------12----------17--16---14---16---177---19---14---16---17---19---14---16---|
-(5/)-10----------15--14---12---14---155---17---12---14---15---17---12---14---|
(Guitar 2)                                                                      (4:00)

---------19---------20---------23^(25)\\(15)-17^(19)-17-15--15-17^(19)-15-17--|
--17h19h20---17h19h20---17h19h20---------------------------17-----------------|
------------------------------------------------------------------------------|
------------------------------------------------------------------------------|
------------------------------------------------------------------------------|
------------------------------------------------------------------------------|
(Guitar 1)

-17^(19`17)15-------------|
-------------17-17-17~----|
--------------------------|
--------------------------|
--------------------------|
--------------------------|
(Guitar 1)          (4:00)
[ Tab from: http://www.guitartabs.cc/tabs/t/tony_iommi/whos_fooling_who_tab.html ]
-------------------------------------------------------------|
-15~~-15p12--12-12~~-----------------------------------------|
-----------14-------14p12------------------------------------|
-------------------------14-12--12---------------------------|
------------------------------14--14-100-10/14^(16s`14\5)----|
---------------------------------------------------------0---|
(Guitar 1)                                             (4:06)
(Back to 66 beats/min. feel)
                       E
------------------------------------|
------------------------------------|
------------------------------------|
-----------------------9------------|
----------7------------7------------|
-0---(3)/7--6~-5---0-----7-6-5-3~---|
{Guitar 1}                    (4:06)

------------------------------------|
------------------------------------|
----------9------------9------------|
-----(5)/9--8~-7-------9--9-8-7-5~--|
-7-----------------7----------------|
------------------------------------|
{Guitar 3}                    (4:06)
                       E                                 E
-----------------------------------------------------------------------|
-----------------------------------------------------------------------|
-----------------------------------------------------------------------|
-----------------------9----------------------------------9------------|
----------7------------7---------------------7------------7------------|
-0---(3)/7--6~-5---0-----7-6-5-3~--0----(3)/7--6~-5---0-----7-6-5-3~---|
{Guitar 1}

------------------------------------------------------------------------|
------------------------------------------------------------------------|
----------9------------9----------------------9------------9------------|
-----(5)/9--8~-7-------9--9-8-7-5~-------(5)/9--8~-7-------9-9-8-7-5~---|
-7-----------------7-----------------7------------------7---------------|
------------------------------------------------------------------------|
{Guitar 2}
 Will they ever wake up?  Will they ever see the light?

                       E                                 E
-----------------------------------------------------------------------|
-----------------------------------------------------------------------|
-----------------------------------------------------------------------|
-----------------------9----------------------------------9------------|
----------7------------7---------------------7------------7------------|
-0---(3)/7--6~-5---0-----7-6-5-3~--0----(3)/7--6~-5---0-----7-6-5-3~---|
{Guitar 1}

------------------------------------------------------------------------|
------------------------------------------------------------------------|
----------9------------9----------------------9------------9------------|
-----(5)/9--8~-7-------9--9-8-7-5~-------(5)/9--8~-7-------9-9-8-7-5~---|
-7-----------------7-----------------7------------------7---------------|
------------------------------------------------------------------------|
{Guitar 2}
 Give me one good reason people fight. He,he,he,he,he,heeee!

CHOURSE

  D D    C/D           E  E   D/E
-------------------------------------------------------|
-------------------------------------------------------|
-------------------------------------------------------|
------------------5---------------------5--------------|
-12-12--10/12--5h7--7-14-14--12/14--5h77--7-5h7--------|
-10-10---8/10---------12-12--10/12---------------------|
 Watch your Mother die, and then tell us not to fight.

  D D    C/D           E  E   D/E
-------------------------------------------------------|
-------------------------------------------------------|
-------------------------------------------------------|
------------------5---------------------5--------------|
-12-12--10/12--5h7--7-14-14--12/14--5h77--7-5h7--------|
-10-10---8/10---------12-12--10/12---------------------|
 Don't you realize they're a bunch of fools

  D D    C/D           E  E   D/E
-------------------------------------------------------|
-------------------------------------------------------|
-------------------------------------------------------|
------------------5---------------------5--------------|
-12-12--10/12--5h7--7-14-14--12/14--5h77--7-5h7--------|
-10-10---8/10---------12-12--10/12---------------------|
 Speak the truth and lie, and expect us to believe

  D  D   C/D
-----------------------|
-----------------------|
-----------------------|
------------------5----|
-12-12--10/12--5h7--7--|
-10-10---8/10----------|
 Tell me, who is fooling who?


-----------------------------------------------------------|
-15--15~~~------------------------------15-12\10-----------|
-15--15~~~-14^(16s`14)-12----12-14^(14))--------12~~-------|
-------------------------14~~------------------------------|
-----------------------------------------------------------|
-----------------------------------------------------------|
(Guitar 1)
                       E                                 E
-----------------------------------------------------------------------|
-----------------------------------------------------------------------|
-----------------------------------------------------------------------|
-----------------------9----------------------------------9------------|
----------7------------7---------------------7------------7------------|
-0---(3)/7--6~-5---0-----7-6-5-3~--0----(3)/7--6~-5---0-----7-6-5-3~---|
{Guitar 2}

------------------------------------------------------------------------|
------------------------------------------------------------------------|
----------9------------9----------------------9------------9------------|
-----(5)/9--8~-7-------9--9-8-7-5~-------(5)/9--8~-7-------9-9-8-7-5~---|
-7-----------------7-----------------7------------------7---------------|
------------------------------------------------------------------------|
{Guitar 3}
                                     Who's fooling who?

------12~~--12h14h15p12-12---------------------------|
-15p12--------------------15p12----------------------|
-------------------------------14-12-144p12----------|
-------------------------------------------14~~~(\9)-|
-----------------------------------------------------|
-----------------------------------------------------|
(Guitar 1)
                       E                                 E
-----------------------------------------------------------------------|
-----------------------------------------------------------------------|
-----------------------------------------------------------------------|
-----------------------9----------------------------------9------------|
----------7------------7---------------------7------------7------------|
-0---(3)/7--6~-5---0-----7-6-5-3~--0----(3)/7--6~-5---0-----7-6-5-3~---|
{Guitar 2}

------------------------------------------------------------------------|
------------------------------------------------------------------------|
----------9------------9----------------------9------------9------------|
-----(5)/9--8~-7-------9--9-8-7-5~-------(5)/9--8~-7-------9-9-8-7-5~---|
-7-----------------7-----------------7------------------7---------------|
------------------------------------------------------------------------|
{Guitar 3}
                                    Who's fooling who?

---------15-17^(19~~)-17-17p15--17p15---17^(19-19~~)-17p15------|
------------------------------17-----177------------------17----|
-------12-------------------------------------------------------|
-(9)/14---------------------------------------------------------|
----------------------------------------------------------------|
----------------------------------------------------------------|
(Guitar 1)
                       E                                 E
-----------------------------------------------------------------------|
-----------------------------------------------------------------------|
-----------------------------------------------------------------------|
-----------------------9----------------------------------9------------|
----------7------------7---------------------7------------7------------|
-0---(3)/7--6~-5---0-----7-6-5-3~--0----(3)/7--6~-5---0-----7-6-5-3~---|
{Guitar 2}

------------------------------------------------------------------------|
------------------------------------------------------------------------|
----------9------------9----------------------9------------9------------|
-----(5)/9--8~-7-------9--9-8-7-5~-------(5)/9--8~-7-------9-9-8-7-5~---|
-7-----------------7-----------------7------------------7---------------|
------------------------------------------------------------------------|
{Guitar 3}
                                   Who's fooling who?

-17^(19-19s`17)-15-15~~-15-15p12h15p12------------------12-----15p12------|
--------------------------------------115~~-15p12--15p12--15p12-----15~---|
-------------------------------------------------14-----------------------|
--------------------------------------------------------------------------|
--------------------------------------------------------------------------|
--------------------------------------------------------------------------|
(Guitar 1)
                       E                                 E
-----------------------------------------------------------------------|
-----------------------------------------------------------------------|
-----------------------------------------------------------------------|
-----------------------9----------------------------------9------------|
----------7------------7---------------------7------------7------------|
-0---(3)/7--6~-5---0-----7-6-5-3~--0----(3)/7--6~-5---0-----7-6-5-3~---|
{Guitar 2}

------------------------------------------------------------------------|
------------------------------------------------------------------------|
----------9------------9----------------------9------------9------------|
-----(5)/9--8~-7-------9--9-8-7-5~-------(5)/9--8~-7-------9-9-8-7-5~---|
-7-----------------7-----------------7------------------7---------------|
------------------------------------------------------------------------|
{Guitar 3}
                                     Who's fooling who?

-15p12-12h15p12------------12-------------------------------------17^(19`17)-|
-----15--------15p12--12h15--15p12--12---------------------------------------|
--------------------14------------14--114p12--12-----------------------------|
--------------------------------------------14--14p12-12-14p12--12-----------|
--------------------------------------------------------------14-------------|
-----------------------------------------------------------------------------|
(Guitar 1)
                       E                                 E
-----------------------------------------------------------------------|
-----------------------------------------------------------------------|
-----------------------------------------------------------------------|
-----------------------9----------------------------------9------------|
----------7------------7---------------------7------------7------------|
-0---(3)/7--6~-5---0-----7-6-5-3~--0----(3)/7--6~-5---0-----7-6-5-3~---|
{Guitar 2}

------------------------------------------------------------------------|
------------------------------------------------------------------------|
----------9------------9----------------------9------------9------------|
-----(5)/9--8~-7-------9--9-8-7-5~-------(5)/9--8~-7-------9-9-8-7-5~---|
-7-----------------7-----------------7------------------7---------------|
------------------------------------------------------------------------|
{Guitar 3}
                                     Who's fooling who?

-15p12-----------12h15-17^(19)-23^(25~--25~\12)---------15-15-15-15-15p12-----|
------15p12-12h15-------------------------------15p12h15-----------------15---|
------------------------------------------------------------------------------|
------------------------------------------------------------------------------|
------------------------------------------------------------------------------|
------------------------------------------------------------------------------|
(Guitar 1)

-15p12h15p12-------------------------------------------------------12-15-17---|
------------15p12h15p12-------------15------------------15p12-15p12-----------|
-----------------------14p12-14p12----114p12-14p12--12~~----------------------|
----------------------------------14--------------14--------------------------|
------------------------------------------------------------------------------|
------------------------------------------------------------------------------|
(Guitar 1)
                       E                                 E
-----------------------------------------------------------------------|
-----------------------------------------------------------------------|
-----------------------------------------------------------------------|
-----------------------9----------------------------------9------------|
----------7------------7---------------------7------------7------------|
-0---(3)/7--6~-5---0-----7-6-5-3~--0----(3)/7--6~-5---0-----7-6-5-3~---|
{Guitar 2}

------------------------------------------------------------------------|
------------------------------------------------------------------------|
----------9------------9----------------------9------------9------------|
-----(5)/9--8~-7-------9--9-8-7-5~-------(5)/9--8~-7-------9-9-8-7-5~---|
-7-----------------7-----------------7------------------7---------------|
------------------------------------------------------------------------|
{Guitar 3}
                                     Who's fooling who?

-17p15p12-----12~~-----------------------------------------------------------|
---------12h15----15p12----------15------------------------------------------|
-----------------------14~~-(10)/15-14pp12p11--------------------------------|
----------------------------(10)/------------14p12---------------------------|
--------------------------------------------------14-10h12^(14~~`12)-10-10~~-|
-----------------------------------------------------------------------------|
(Guitar 1)
                       E                                 E
-----------------------------------------------------------------------|
-----------------------------------------------------------------------|
-----------------------------------------------------------------------|
-----------------------9----------------------------------9------------|
----------7------------7---------------------7------------7------------|
-0---(3)/7--6~-5---0-----7-6-5-3~--0----(3)/7--6~-5---0-----7-6-5-3~---|
{Guitar 2}

------------------------------------------------------------------------|
------------------------------------------------------------------------|
----------9------------9----------------------9------------9------------|
-----(5)/9--8~-7-------9--9-8-7-5~-------(5)/9--8~-7-------9-9-8-7-5~---|
-7-----------------7-----------------7------------------7---------------|
------------------------------------------------------------------------|
{Guitar 3}
                                     Who's fooling who?

-------------------------------------------------------------------12---------|
---------------------------------------------------------------------15p12----|
--------14^(16-16-16`14)-14^(16-16-16`114)-14^(16-16-16`14)-14^(16)-------14--|
------------------------------------------------------------------------------|
-10h12~~----------------------------------------------------------------------|
------------------------------------------------------------------------------|
Guitar 1)

--------12h15p12--15p12-15-17-19/23^(255-25-25`23)\12~~~~~~~~{Let fade}-|
---12h14--------15------------------------------------------------------|
-14---------------------------------------------------------------------|
------------------------------------------------------------------------|
------------------------------------------------------------------------|
------------------------------------------------------------------------|
(Guitar 1)                                        (5:53)
                       E                                 E
------------------------------------------------------------------------|
------------------------------------------------------------------------|
------------------------------------------------------------------------|
-----------------------9----------------------------------9-------------|
----------7------------7---------------------7------------7-------------|
-0---(3)/7--6~-5---0-----7-6-5-3~--0----(3)/7--6~-5---0-----7-6-5-3~--0-|{Let fade}
{Guitar 2}

------------------------------------------------------------------------|
------------------------------------------------------------------------|
----------9------------9----------------------9------------9------------|
-----(5)/9--8~-7-------9--9-8-7-5~-------(5)/9--8~-7-------9-9-8-7-5~---|
-7-----------------7-----------------7------------------7---------------|
----------------------------------------------------------------------0-|{Let fade}
{Guitar 3}
Comments