Tony Iommi - Time Is Mine Chords & Tabs

 

Time Is Mine Chords & Tabs

Tony Iommi Chords & Tabs

Version: 1 Type: Tab 0 ratings
1 star 2 stars 3 stars 4 stars 5 stars
comments

Time Is Mine Tab

   
-----------------------------------------------------------------------------

Tuning Info: Tune to C#, Largo, 60 beats/min., 4/4 count

Note:  Lyrics may not align with music and multiple guitar parts may not
       align due to space constraints.

[f]
----------------------------------------------------------------------------------|
----------------------------------------------------------------------------------|
----------------------------------------------------------------------------------|
-4-------------------------------------44-2~---4----------------------------------|
---4s^(4.5)--3~~--4-3-2~------------4-4-----------4s^(4.5)--3~~--4-3-2~-----------|
------------------------4s^(5)--2~-------------------------------------4s^(5)-2~~-|
{Guitar 1}

  F# C# C    C# C  B   A   F#  C#  D E    F# C# C    C# C  B   A   F#
-------------------------------------------------------------------------|
-------------------------------------------------------------------------|
-------------------------------------------------------------------------|
-11-------------------------------11--9----11----------------------------|
--9-11-10---11-10--9---7---4--11---9--7-----9-11-10---11-10--9---7---4---|
-----9--8----9--8--7---5---2---9---------------9--8----9--8--7---5---2---|
{Guitar 2}

----------------------------------------------------------------------------------|
----------------------------------------------------------------------------------|
----------------------------------------------------------------------------------|
-4-------------------------------------44-2~---4----------------------------------|
---4s^(4.5)--3~~--4-3-2~------------4-4-----------4s^(4.5)--3~~--4-3-2~-----------|
------------------------4s^(5)--2~-------------------------------------4s^(5)-2~~-|
{Guitar 1}

  F# C# C    C# C  B   A   F#  C#  D E    F# C# C    C# C  B   A   F#
-------------------------------------------------------------------------|
-------------------------------------------------------------------------|
-------------------------------------------------------------------------|
-11-------------------------------11--9----11----------------------------|
--9-11-10---11-10--9---7---4--11---9--7-----9-11-10---11-10--9---7---4---|
-----9--8----9--8--7---5---2---9---------------9--8----9--8--7---5---2---|
{Guitar 2}

[mp]
----------------------------------------------------------------------------------|
----------------------------------------------------------------------------------|
----------------------------------------------------------------------------------|
-4-------------------------------------44-2~---4----------------------------------|
---4s^(4.5)--3~~--4-3-2~------------4-4-----------4s^(4.5)--3~~--4-3-2~-----------|
------------------------4s^(5)--2~-------------------------------------4s^(5)-2~~-|
{Guitar 1}
{.................................slight pm...................................}

----------------------------------------------------------------------------|
----------------------------------------------------------------------------|
----------------------------------------------------------------------------|
-----[9]-----------------------------------[9]------------------------------|
-[9]----------------------------------[99]----------------------------------|
----------------------------------------------------------------------------|
     {wah}                                {wah}
{Guitar 2}

F# slow arpegio
--------------1---------------1---------------------1-----------------1-----|
-----------*-----1---------*-----1---------------*-----1-----------*-----1--|
--------*---------------*---------------------*-----------------*-----------|
-----2---------------2---------------------2-----------------2--------------|
--2---------------2--------------------22-----------------2-----------------|
----------------------------------------------------------------------------|
{Guitar 3}
 Lift me up,                          Lift me up

----------------------------------------------------------------------------------|
----------------------------------------------------------------------------------|
----------------------------------------------------------------------------------|
-4-------------------------------------44-2~---4----------------------------------|
---4s^(4.5)--3~~--4-3-2~------------4-4-----------4s^(4.5)--3~~--4-3-2~-----------|
------------------------4s^(5)--2~-------------------------------------4s^(5)-2~~-|
{Guitar 1}
{.................................slight pm...................................}

----------------------------------------------------------------------------|
----------------------------------------------------------------------------|
----------------------------------------------------------------------------|
-----[9]-----------------------------------[9]------------------------------|
-[9]----------------------------------[99]----------------------------------|
----------------------------------------------------------------------------|
     {wah}                                {wah}
{Guitar 2}

F# slow arpegio
--------------1---------------1---------------------1-----------------1-----|
-----------*-----1---------*-----1---------------*-----1-----------*-----1--|
--------*---------------*---------------------*-----------------*-----------|
-----2---------------2---------------------2-----------------2--------------|
--2---------------2--------------------22-----------------2-----------------|
----------------------------------------------------------------------------|
{Guitar 3}
 Put me above jail,  but put me 'neath the skies,  below crimsom skies

[f]
----------------------------------------------------------------------------------|
----------------------------------------------------------------------------------|
----------------------------------------------------------------------------------|
-4-------------------------------------44-2~---4----------------------------------|
---4s^(4.5)--3~~--4-3-2~------------4-4-----------4s^(4.5)--3~~--4-3-2~-----------|
------------------------4s^(5)--2~-------------------------------------4s^(5)-2~~-|
{Guitar 1}

  F# C# C    C# C  B   A   F#  C#  D E    F# C# C    C# C  B   A   F#
-------------------------------------------------------------------------|
-------------------------------------------------------------------------|
-------------------------------------------------------------------------|
-11-------------------------------11--9----11----------------------------|
--9-11-10---11-10--9---7---4--11---9--7-----9-11-10---11-10--9---7---4---|
-----9--8----9--8--7---5---2---9---------------9--8----9--8--7---5---2---|
{Guitar 2}
Undress me from these rags, shake me and watch me glow.  Foundations cracking
                                            under the wisdom of our steps.
[mp]
----------------------------------------------------------------------------------|
----------------------------------------------------------------------------------|
----------------------------------------------------------------------------------|
-4-------------------------------------44-2~---4----------------------------------|
---4s^(4.5)--3~~--4-3-2~------------4-4-----------4s^(4.5)--3~~--4-3-2~-----------|
------------------------4s^(5)--2~-------------------------------------4s^(5)-2~~-|
{Guitar 1}
{.................................slight pm...................................}

----------------------------------------------------------------------------|
----------------------------------------------------------------------------|
----------------------------------------------------------------------------|
-----[9]-----------------------------------[9]------------------------------|
-[9]----------------------------------[99]----------------------------------|
----------------------------------------------------------------------------|
     {wah}                                {wah}
{Guitar 2}

F# slow arpegio
--------------1---------------1---------------------1-----------------1-----|
-----------*-----1---------*-----1---------------*-----1-----------*-----1--|
--------*---------------*---------------------*-----------------*-----------|
-----2---------------2---------------------2-----------------2--------------|
--2---------------2--------------------22-----------------2-----------------|
----------------------------------------------------------------------------|
{Guitar 3}
Lift me up       and shake me low, shake and glow and life will save

CHOURSE
[f]

  F#  F#\E  F#/A F#   F#  E  D C#     F#  F#\E  F#/A F#   E F#/A C  A
----------------------------------------------------------------------------|
----------------------------------------------------------------------------|
----------------------------------------------------------------------------|
-11---11\9--11/14-11---11-9----------11----11\9--11/14-11--7-11/14-16-14----|
--9----9\7---9/12--9----9-7-12-11-----9-----9\7---9/12--9--9--9/12-14-12----|
----------------------------10--9-------------------------------------------|
 Time is mine, ignore the blind  it won't be long 'till the rains come

  F#  F#\E  F#/A F#   F#  E  D C#     F#  F#\E  F#/A F#   E F#/A C  A
----------------------------------------------------------------------------|
----------------------------------------------------------------------------|
----------------------------------------------------------------------------|
-11---11\9--11/14-11---11-9----------11----11\9--11/14-11--7-11/14-16-14----|
--9----9\7---9/12--9----9-7-12-11-----9-----9\7---9/12--9--9--9/12-14-12----|
----------------------------10--9-------------------------------------------|
 And time will fly a burden on life lifted high and precisely through wisdom
                                                                and war

----------------------------------------------------------------------------------|
----------------------------------------------------------------------------------|
----------------------------------------------------------------------------------|
-4-------------------------------------44-2~---4----------------------------------|
---4s^(4.5)--3~~--4-3-2~------------4-4-----------4s^(4.5)--3~~--4-3-2~-----------|
------------------------4s^(5)--2~-------------------------------------4s^(5)-2~~-|
{Guitar 1}

  F# C# C    C# C  B   A   F#  C#  D E    F# C# C    C# C  B   A   F#
-------------------------------------------------------------------------|
-------------------------------------------------------------------------|
-------------------------------------------------------------------------|
-11-------------------------------11--9----11----------------------------|
--9-11-10---11-10--9---7---4--11---9--7-----9-11-10---11-10--9---7---4---|
-----9--8----9--8--7---5---2---9---------------9--8----9--8--7---5---2---|
{Guitar 2}
 Ummmm, yeah,   wisdom    and    war,    yeah

[mp]
----------------------------------------------------------------------------------|
----------------------------------------------------------------------------------|
----------------------------------------------------------------------------------|
-4-------------------------------------44-2~---4----------------------------------|
---4s^(4.5)--3~~--4-3-2~------------4-4-----------4s^(4.5)--3~~--4-3-2~-----------|
------------------------4s^(5)--2~-------------------------------------4s^(5)-2~~-|
{Guitar 1}
{.................................slight pm...................................}

----------------------------------------------------------------------------|
----------------------------------------------------------------------------|
----------------------------------------------------------------------------|
-----[9]-----------------------------------[9]------------------------------|
-[9]----------------------------------[99]----------------------------------|
----------------------------------------------------------------------------|
     {wah}                                {wah}
{Guitar 2}

F# slow arpegio
--------------1---------------1---------------------1-----------------1-----|
-----------*-----1---------*-----1---------------*-----1-----------*-----1--|
--------*---------------*---------------------*-----------------*-----------|
-----2---------------2---------------------2-----------------2--------------|
--2---------------2--------------------22-----------------2-----------------|
----------------------------------------------------------------------------|
{Guitar 3}
Braided veins,                        can turn to gold,

----------------------------------------------------------------------------------|
----------------------------------------------------------------------------------|
----------------------------------------------------------------------------------|
-4-------------------------------------44-2~---4----------------------------------|
---4s^(4.5)--3~~--4-3-2~------------4-4-----------4s^(4.5)--3~~--4-3-2~-----------|
------------------------4s^(5)--2~-------------------------------------4s^(5)-2~~-|
{Guitar 1}
{.................................slight pm...................................}
[ Tab from: http://www.guitartabs.cc/tabs/t/tony_iommi/time_is_mine_tab.html ]
----------------------------------------------------------------------------|
----------------------------------------------------------------------------|
----------------------------------------------------------------------------|
-----[9]-----------------------------------[9]------------------------------|
-[9]----------------------------------[99]----------------------------------|
----------------------------------------------------------------------------|
     {wah}                                {wah}
{Guitar 2}

F# slow arpegio
--------------1---------------1---------------------1-----------------1-----|
-----------*-----1---------*-----1---------------*-----1-----------*-----1--|
--------*---------------*---------------------*-----------------*-----------|
-----2---------------2---------------------2-----------------2--------------|
--2---------------2--------------------22-----------------2-----------------|
----------------------------------------------------------------------------|
{Guitar 3}
Smoke and stone,    {hiss}       will claim the skies and open all whose eyes
                                                        are blind
[f]
----------------------------------------------------------------------------------|
----------------------------------------------------------------------------------|
----------------------------------------------------------------------------------|
-4-------------------------------------44-2~---4----------------------------------|
---4s^(4.5)--3~~--4-3-2~------------4-4-----------4s^(4.5)--3~~--4-3-2~-----------|
------------------------4s^(5)--2~-------------------------------------4s^(5)-2~~-|
{Guitar 1}


  F# C# C    C# C  B   A   F#  C#  D E    F# C# C    C# C  B   A   F#
-------------------------------------------------------------------------|
-------------------------------------------------------------------------|
-------------------------------------------------------------------------|
-11-------------------------------11--9----11----------------------------|
--9-11-10---11-10--9---7---4--11---9--7-----9-11-10---11-10--9---7---4---|
-----9--8----9--8--7---5---2---9---------------9--8----9--8--7---5---2---|
{Guitar 2}
The Tempter is behind thee, and cowers through the throes,
The sands that drank the blood, to rivers that flow beyond

CHOURSE

  F#  F#\E  F#/A F#   F#  E  D C#     F#  F#\E  F#/A F#   E F#/A C  A
----------------------------------------------------------------------------|
----------------------------------------------------------------------------|
----------------------------------------------------------------------------|
-11---11\9--11/14-11---11-9----------11----11\9--11/14-11--7-11/14-16-14----|
--9----9\7---9/12--9----9-7-12-11-----9-----9\7---9/12--9--9--9/12-14-12----|
----------------------------10--9-------------------------------------------|
 Time is mine, ignore the blind  it won't be long 'till the writing is gone

  F#  F#\E  F#/A F#   F#  E  D C#     F#  F#\E  F#/A F#   E F#/A C  A
----------------------------------------------------------------------------|
----------------------------------------------------------------------------|
----------------------------------------------------------------------------|
-11---11\9--11/14-11---11-9----------11----11\9--11/14-11--7-11/14-16-14----|
--9----9\7---9/12--9----9-7-12-11-----9-----9\7---9/12--9--9--9/12-14-12----|
----------------------------10--9-------------------------------------------|
 And time will fly, the tied hands of man and you will understand through
                                                the pains of rebirth

  F#  F#\E  F#/A F#   F#  E  D C#     F#  F#\E  F#/A F#   E F#/A C  A
----------------------------------------------------------------------------|
----------------------------------------------------------------------------|
----------------------------------------------------------------------------|
-11---11\9--11/14-11---11-9----------11----11\9--11/14-11--7-11/14-16-14----|
--9----9\7---9/12--9----9-7-12-11-----9-----9\7---9/12--9--9--9/12-14-12----|
----------------------------10--9-------------------------------------------|
 Time is mine, the choking of seas, I won't be wrong when the scriptures have gone

  F#  F#\E  F#/A F#   F#  E  D C#     F#  F#\E  F#/A F#   E F#/A C  A
----------------------------------------------------------------------------|
----------------------------------------------------------------------------|
----------------------------------------------------------------------------|
-11---11\9--11/14-11---11-9----------11----11\9--11/14-11--7-11/14-16-14----|
--9----9\7---9/12--9----9-7-12-11-----9-----9\7---9/12--9--9--9/12-14-12----|
----------------------------10--9-------------------------------------------|
 And time will fly a burden on life lifted high and precisely through wisdom
                                                                and war
BRIDGE

-----------14------------------------------9------------------|
-----------17^(19~~~~~~~~~~)---------------12^(14~~~~~~~~~~~)-|
--------------------------------------------------------------|
--------------------------------------------------------------|
--------------------------------------------------------------|
--------------------------------------------------------------|
{Guitar 1}                                   {slight feedback}

 F#F#F# F# G#                   F#F#F# F# G#
--------------------------------------------------------------|
--------------------------------------------------------------|
--------------------------------------------------------------|
----------------------4-------------------------------4-------|
-4-4-4--4---6--(2)/4~--5-4~~----4-4-4--44---6--(2)/4~--5-4~~--|
-2-2-2--2---4-------------------2-2-2--22---4-----------------|
{Guitar 2}
 Deplete the eyes                     walk through the skies

-----------14------------------------------9------------------|
-----------17^(19~~~~~~~~~~)---------------12^(14~~~~~~~~~~~)-|
--------------------------------------------------------------|
--------------------------------------------------------------|
--------------------------------------------------------------|
--------------------------------------------------------------|
{Guitar 1}                                   {slight feedback}

 F#F#F# F# G#                   F#F#F# F# G#
--------------------------------------------------------------|
--------------------------------------------------------------|
--------------------------------------------------------------|
----------------------4-------------------------------4-------|
-4-4-4--4---6--(2)/4~--5-4~~----4-4-4--44---6--(2)/4~--5-4~~--|
-2-2-2--2---4-------------------2-2-2--22---4-----------------|
{Guitar 2}
 In the memories of old, we'll blow it all away!

LEAD

-------------------------------------------------12--------------------------|
-----9~~-10~~-12~~(9)/12^(14)-12^(144)-12^(14)--12^(14`12)10~-12-12-10-12~~~-|
-(6)/11~~--------------------------------------------------------------------|
-----------------------------------------------------------------------------|
-----------------------------------------------------------------------------|
-----------------------------------------------------------------------------|
{Guitar 1}

-------------------------------------------------------------|
-------------------------------------------------------------|
-------------------------------------------------------------|
--------4-------------4--------------4--------------4--------|
-------4--5---------4---5-4~~-------4--55---------4---5-4~~--|
--2---5-----4~~--2h5-----------2---5------4~~--2h5-----------|
{Guitar 2}

---------------16~~-18~~-19~~-24^(26-26~~~`24~~~)-24^(28~~)\(20)--|
-(12)/18~~-20~~---------------------------------------------------|
------------------------------------------------------------------|
------------------------------------------------------------------|
------------------------------------------------------------------|
------------------------------------------------------------------|
{Guitar 1}

-------------------------------------------------------------|
-------------------------------------------------------------|
-------------------------------------------------------------|
--------4-------------4--------------4--------------4--------|
-------4--5---------4---5-4~~-------4--55---------4---5-4~~--|
--2---5-----4~~--2h5-----------2---5------4~~--2h5-----------|
{Guitar 2}

------------------------------------------------------------------|
-19~------------------------------------------------------19~~----|
-----16^(18s`16)-16p14-16~~--16h18p16 trr~~~-16^(18`16)-14--------|
------------------------------------------------------------------|
------------------------------------------------------------------|
------------------------------------------------------------------|
{............................wah...............................}
{Guitar 1}

----------------------------------------------------------------------------------|
----------------------------------------------------------------------------------|
----------------------------------------------------------------------------------|
-4-------------------------------------44-2~---4----------------------------------|
---4s^(4.5)--3~~--4-3-2~------------4-4-----------4s^(4.5)--3~~--4-3-2~-----------|
------------------------4s^(5)--2~-------------------------------------4s^(5)-2~~-|
{Guitar 2}                                                          {Lead ends
                                                                           here}

----------------------------------------------17------------------------------|
-------------------18^(20~)-------------20-17-20^(22`20)-17-20~p17-19~\(12)---|
-16^(16)-16-14-16^(18)-16~---------18~p116-17~--------------------------------|
------------------------------------------------------------------------------|
------------------------------------------------------------------------------|
------------------------------------------------------------------------------|
{......................................wah........................................}
{Guitar1}

CHOURSE

  F#  F#\E  F#/A F#   F#  E  D C#     F#  F#\E  F#/A F#   E F#/A C  A
----------------------------------------------------------------------------|
----------------------------------------------------------------------------|
----------------------------------------------------------------------------|
-11---11\9--11/14-11---11-9----------11----11\9--11/14-11--7-11/14-16-14----|
--9----9\7---9/12--9----9-7-12-11-----9-----9\7---9/12--9--9--9/12-14-12----|
----------------------------10--9-------------------------------------------|
 Time is mine, ignore the blind  it won't be long 'till the writing is gone

  F#  F#\E  F#/A F#   F#  E  D C#     F#  F#\E  F#/A F#   E F#/A C  A
----------------------------------------------------------------------------|
----------------------------------------------------------------------------|
----------------------------------------------------------------------------|
-11---11\9--11/14-11---11-9----------11----11\9--11/14-11--7-11/14-16-14----|
--9----9\7---9/12--9----9-7-12-11-----9-----9\7---9/12--9--9--9/12-14-12----|
----------------------------10--9-------------------------------------------|
 And time will fly, the tied hands of man and you will understand through
                                                the pains of rebirth

  F#  F#\E  F#/A F#   F#  E  D C#     F#  F#\E  F#/A F#   E F#/A C  A
----------------------------------------------------------------------------|
----------------------------------------------------------------------------|
----------------------------------------------------------------------------|
-11---11\9--11/14-11---11-9----------11----11\9--11/14-11--7-11/14-16-14----|
--9----9\7---9/12--9----9-7-12-11-----9-----9\7---9/12--9--9--9/12-14-12----|
----------------------------10--9-------------------------------------------|
 Time is mine, the choking of seas, I won't be wrong when the scriptures have gone

  F#  F#\E  F#/A F#   F#  E  D C#     F#  F#\E  F#/A F#   E F#/A C  A
----------------------------------------------------------------------------|
----------------------------------------------------------------------------|
----------------------------------------------------------------------------|
-11---11\9--11/14-11---11-9----------11----11\9--11/14-11--7-11/14-16-14----|
--9----9\7---9/12--9----9-7-12-11-----9-----9\7---9/12--9--9--9/12-14-12----|
----------------------------10--9-------------------------------------------|
 And time will fly a burden on life lifted high and precisely through wisdom
                                                                and war
F#\E  F#
----------|
----------|
----------|
-11\9-11--|
--9\7--9--|
----------|
      {Let ring, feedback and fade}
Comments