Tony Iommi - Flame On Chords & Tabs

 

Flame On Chords & Tabs

Tony Iommi Chords & Tabs

Version: 1 Type: Tab 0 ratings
1 star 2 stars 3 stars 4 stars 5 stars
comments

Flame On Tab

   
-----------------------------------------------------------------------------

Tuning Info: Tune to C#, Andante, 96 beats/min., 4/4 count

Note:  Lyrics may not aligh with music and multiple guitar parts may not
       align due to space constraints.

---------------------------------------------------------------|
---------------------------------------------------------------|
-9-9--6--------9-9----9-9--6--------9-99----9-9--6--------9-9--|
-9-9--6--4p2---9-9----9-9--6--4p2---9-99----9-9--6--4p2---9-9--|
---------4p2------------------4p2-------------------4p2--------|
---------------------------------------------------------------|
{Guitar 1}
{Phase Shift Trebble, no bass on the guitar, slight delay}

--------------------|
--------------------|
-9-9--6--------9-9--|
-9-9--6--4p2---9-9--|
---------4p2--------|
--------------------|
{Guitar 1}
{Phase Shift Trebble, no bass on the guitar, slight delay}


 C# C#  E   F# G  D   C# C#  E   F# G  D
---------------------------------------------|
---------------------------------------------|
---------------------------------------------|
---------------------------------------------|
-11-11--14--16-17-12--11-11--14--16-17--12---|
--9--9--12--14-15-10---9--9--12--14-15--10---|

 C# C#  E   F# G  D   C# C#  E   F# G  D
---------------------------------------------|
---------------------------------------------|
---------------------------------------------|
---------------------------------------------|
-11-11--14--16-17-12--11-11--14--16-17--12---|
--9--9--12--14-15-10---9--9--12--14-15--10---|

 C# C#  E   F# G  D   C# C#  E   F# G  D
---------------------------------------------|
---------------------------------------------|
---------------------------------------------|
---------------------------------------------|
-11-11--14--16-17-12--11-11--14--16-17--12---|
--9--9--12--14-15-10---9--9--12--14-15--10---|

 C# C#  E   F# G  D   C# C#  E   F# G  D
---------------------------------------------|
---------------------------------------------|
---------------------------------------------|
---------------------------------------------|
-11-11--14--16-17-12--11-11--14--16-17--12---|
--9--9--12--14-15-10---9--9--12--14-15--10---|

------9--9--------------------9--9---------------------|
-----*--*--------------------*--*----------------------|
----*--*--------------------*--*-----------------------|
---*--*--------------------*--*------------------------|
--9--9-------14-12--11----9--9-------100-12--11--------|
-x--x--------12-10---9---x--x--------122-10---9--------|
 I am one; one who shines.  Yeah, I was born of a scorpion's mind

------9--9--------------------9--9---------------------|
-----*--*--------------------*--*----------------------|
----*--*--------------------*--*-----------------------|
---*--*--------------------*--*------------------------|
--9--9-------14-12--11----9--9-------100-12--11--------|
-x--x--------12-10---9---x--x--------122-10---9--------|
 I am one, so alive.  Don't try to teach me what your lips can't decide, oh!


 C# C#  E   F# G  D   C# C#  E   F# G  D
---------------------------------------------|
---------------------------------------------|
---------------------------------------------|
---------------------------------------------|
-11-11--14--16-17-12--11-11--14--16-17--12---|
--9--9--12--14-15-10---9--9--12--14-15--10---|

 C# C#  E   F# G  D   C# C#  E   F# G  D
---------------------------------------------|
---------------------------------------------|
---------------------------------------------|
---------------------------------------------|
-11-11--14--16-17-12--11-11--14--16-17--12---|
--9--9--12--14-15-10---9--9--12--14-15--10---|

--------------------------------------------|
--------------------------------------------|
-9-9--6--------9-9----9-9--6--------9-99----|
-9-9--6--4p2---9-9----9-9--6--4p2---9-99----|
---------4p2------------------4p2-----------|
--------------------------------------------|
{Guitar 1}
{Phase Shift Trebble, no bass on the guitar, slight delay}

------9--9--------------------9--9---------------------|
-----*--*--------------------*--*----------------------|
----*--*--------------------*--*-----------------------|
---*--*--------------------*--*------------------------|
--9--9-------14-12--11----9--9-------100-12--11--------|
-x--x--------12-10---9---x--x--------122-10---9--------|
{Guitar 2}
 I'm the sun, so alive.  A simple breath's all I need to get by

--------------------------------------------|
--------------------------------------------|
-9-9--6--------9-9----9-9--6--------9-99----|
-9-9--6--4p2---9-9----9-9--6--4p2---9-99----|
---------4p2------------------4p2-----------|
--------------------------------------------|
{Guitar 1}
{Phase Shift Trebble, no bass on the guitar, slight delay}

------9--9--------------------9--9---------------------|
-----*--*--------------------*--*----------------------|
----*--*--------------------*--*-----------------------|
---*--*--------------------*--*------------------------|
--9--9-------14-12--11----9--9-------100-12--11--------|
-x--x--------12-10---9---x--x--------122-10---9--------|
{Guitar 2}
 Words you speak are like dirt in my mind, I'm gonna burn till all the
                                                stars die
CHOURSE

 C# C# C# C#  D# D# D# D#  E  E  E  E  F# F# F# F#
------------------------------------------------------|
------------------------------------------------------|
------------------------------------------------------|
------------------------------------------------------|
-11-11-11-11--13-13-13-13--14-14-14-14---16-16-16-16--|
--9--9--9--9--11-11-11-11--12-12-12-12---14-14-14-14--|
  D  D  D  D   D  D  D  D   D  D  D  D   D  D  D  D
 Flame On!
 I use to bleed like a suicide mother

 C# C# C# C#  D# D# D# D#  E  E  E  E  F# F# F# F#
------------------------------------------------------|
------------------------------------------------------|
------------------------------------------------------|
------------------------------------------------------|
-11-11-11-11--13-13-13-13--14-14-14-14---16-16-16-16--|
--9--9--9--9--11-11-11-11--12-12-12-12---14-14-14-14--|
  D  D  D  D   D  D  D  D   D  D  D  D   D  D  D  D
 Flame On!
 And now I breathe in this dirty black summer

 C# C# C# C#  D# D# D# D#  E  E  E  E  F# F# F# F#
------------------------------------------------------|
------------------------------------------------------|
------------------------------------------------------|
------------------------------------------------------|
-11-11-11-11--13-13-13-13--14-14-14-14---16-16-16-16--|
--9--9--9--9--11-11-11-11--12-12-12-12---14-14-14-14--|
  D  D  D  D   D  D  D  D   D  D  D  D   D  D  D  D
 Flame On!
 I bought the truth in the mouth of my brother

 C# C# C# C#  D# D# D# D#  E  E  E  E  F# F# F# F#
------------------------------------------------------|
------------------------------------------------------|
------------------------------------------------------|
------------------------------------------------------|
-11-11-11-11--13-13-13-13--14-14-14-14---16-16-16-16--|
--9--9--9--9--11-11-11-11--12-12-12-12---14-14-14-14--|
  D  D  D  D   D  D  D  D   D  D  D  D   D  D  D  D
 Flame On!
 I use to bleed like a suicide mother

 C# C#  E   F# G  D   C# C#  E   F# G  D
---------------------------------------------|
---------------------------------------------|
---------------------------------------------|
---------------------------------------------|
-11-11--14--16-17-12--11-11--14--16-17--12---|
--9--9--12--14-15-10---9--9--12--14-15--10---|

 C# C#  E   F# G  D   C# C#  E   F# G  D
---------------------------------------------|
---------------------------------------------|
---------------------------------------------|
---------------------------------------------|
-11-11--14--16-17-12--11-11--14--16-17--12---|
--9--9--12--14-15-10---9--9--12--14-15--10---|

--------------------------------------------|
--------------------------------------------|
-9-9--6--------9-9----9-9--6--------9-99----|
-9-9--6--4p2---9-9----9-9--6--4p2---9-99----|
---------4p2------------------4p2-----------|
--------------------------------------------|
{Guitar 1}
{Phase Shift Trebble, no bass on the guitar, slight delay}

------9--9----9---9---9---9---9---9---99---9---9---9----|
-----*--*----*---*---*---*---*---*---*----*---*---*-----|
----*--*----*---*---*---*---*---*---*----*---*---*------|
---*--*----*---*---*---*---*---*---*----*---*---*-------|
--9---9---9---9---9---9---9---9---9---99---9---9--------|
-x---x---x---x---x---x---x---x---x---x----x---x---------|
{Guitar 2}
 As it is, thought divine, A diamond seed in the heart of all mind

--------------------------------------------|
--------------------------------------------|
-9-9--6--------9-9----9-9--6--------9-99----|
-9-9--6--4p2---9-9----9-9--6--4p2---9-99----|
---------4p2------------------4p2-----------|
--------------------------------------------|
{Guitar 1}
{Phase Shift Trebble, no bass on the guitar, slight delay}

------9--9----9---9---9---9---9---9---99---9---9---9----|
-----*--*----*---*---*---*---*---*---*----*---*---*-----|
----*--*----*---*---*---*---*---*---*----*---*---*------|
---*--*----*---*---*---*---*---*---*----*---*---*-------|
--9---9---9---9---9---9---9---9---9---99---9---9--------|
-x---x---x---x---x---x---x---x---x---x----x---x---------|
{Guitar 2}
All is truth, truth it shines, Don't hesitate for the word it divides

CHOURSE

 C# C# C# C#  D# D# D# D#  E  E  E  E  F# F# F# F#
------------------------------------------------------|
------------------------------------------------------|
------------------------------------------------------|
------------------------------------------------------|
-11-11-11-11--13-13-13-13--14-14-14-14---16-16-16-16--|
--9--9--9--9--11-11-11-11--12-12-12-12---14-14-14-14--|
  D  D  D  D   D  D  D  D   D  D  D  D   D  D  D  D
 Flame On!
 I use to bleed like a suicide mother
[ Tab from: http://www.guitartabs.cc/tabs/t/tony_iommi/flame_on_tab.html ]
 C# C# C# C#  D# D# D# D#  E  E  E  E  F# F# F# F#
------------------------------------------------------|
------------------------------------------------------|
------------------------------------------------------|
------------------------------------------------------|
-11-11-11-11--13-13-13-13--14-14-14-14---16-16-16-16--|
--9--9--9--9--11-11-11-11--12-12-12-12---14-14-14-14--|
  D  D  D  D   D  D  D  D   D  D  D  D   D  D  D  D
 Flame On!
 And now I breathe in this dirty black summer

 C# C# C# C#  D# D# D# D#  E  E  E  E  F# F# F# F#
------------------------------------------------------|
------------------------------------------------------|
------------------------------------------------------|
------------------------------------------------------|
-11-11-11-11--13-13-13-13--14-14-14-14---16-16-16-16--|
--9--9--9--9--11-11-11-11--12-12-12-12---14-14-14-14--|
  D  D  D  D   D  D  D  D   D  D  D  D   D  D  D  D
 Flame On!
 I bought the truth in the mouth of my brother

 C# C# C# C#  D# D# D# D#  E  E  E  E  F# F# F# F#
------------------------------------------------------|
------------------------------------------------------|
------------------------------------------------------|
------------------------------------------------------|
-11-11-11-11--13-13-13-13--14-14-14-14---16-16-16-16--|
--9--9--9--9--11-11-11-11--12-12-12-12---14-14-14-14--|
  D  D  D  D   D  D  D  D   D  D  D  D   D  D  D  D
 Flame On!
 I use to bleed like a suicide mother

BRIDGE

----------------------------------------------------------------------------|
-18------------------18-------------------18------------------18------------|
---17~~~~s/18----------17~~~~s/18-----------17~~~~s/18----------17~~~~s/18--|
----------------------------------------------------------------------------|
----------------------------------------------------------------------------|
----------------------------------------------------------------------------|

---------------------------------------------------------------|
---------------------------------------------------------------|
-------9--9-9-9-9-6-6------6----------99--9-9-9-9-6-6------6---|
-------9--9-9-9-9-6-6------6----------99--9-9-9-9-6-6------6---|
-(4)/9---------------9^(10)--9--(4)/9----------------9^(10)--9-|
---------------------------------------------------------------|
       D  u D u D u D      D         D  u D u D u D      D

---------------------------------------------------------------|
---------------------------------------------------------------|
-------9--9-9-9-9-6-6------6----------99--9-9-9-9-6-6------6---|
-------9--9-9-9-9-6-6------6----------99--9-9-9-9-6-6------6---|
-(4)/9---------------9^(10)--9--(4)/9----------------9^(10)--9-|
---------------------------------------------------------------|
       D  u D u D u D      D         D  u D u D u D      D

---------------------------------------------------------------|
---------------------------------------------------------------|
-------9--9-9-9-9-6-6------6----------99--9-9-9-9-6-6------6---|
-------9--9-9-9-9-6-6------6----------99--9-9-9-9-6-6------6---|
-(4)/9---------------9^(10)--9--(4)/9----------------9^(10)--9-|
---------------------------------------------------------------|
       D  u D u D u D      D         D  u D u D u D      D

---------------------------------------------------------------|
---------------------------------------------------------------|
-------9--9-9-9-9-6-6------6----------99--9-9-9-9-6-6------6---|
-------9--9-9-9-9-6-6------6----------99--9-9-9-9-6-6------6---|
-(4)/9---------------9^(10)--9--(4)/9----------------9^(10)--9-|
---------------------------------------------------------------|
       D  u D u D u D      D         D  u D u D u D      D

LEAD

--------------------------------------------------------|
-9~~--7^(9`7)-9---------5-7--7^(9-9)-7--5-7-------------|
---------------6~~-6-4-6---6---------------6~-6p4-------|
-------------------------------------------------6-4-6--|
------------------------------------------------------4-|
--------------------------------------------------------|
{Guitar 1}

 C# C#  E   F# G  D   C# C#  E   F# G  D
---------------------------------------------|
---------------------------------------------|
---------------------------------------------|
---------------------------------------------|
-11-11--14--16-17-12--11-11--14--16-17--12---|
--9--9--12--14-15-10---9--9--12--14-15--10---|
{Guitar 2}

-7-7-7-7-7-7-7---------------9-9-9/(12))-9p7-9~~\(6)-19-19-19-19-19-19-19-19-|
-7-7-7-7-7-7-7-6^(6.5~)-6p4-----------------9--------19-19-19-19-19-19-19-19-|
---------------6^(6.5~)----6-------------------------------------------------|
-----------------------------------------------------------------------------|
-----------------------------------------------------------------------------|
-----------------------------------------------------------------------------|
{Guitar 1

 C# C#  E   F# G  D   C# C#  E   F# G  D
---------------------------------------------|
---------------------------------------------|
---------------------------------------------|
---------------------------------------------|
-11-11--14--16-17-12--11-11--14--16-17--12---|
--9--9--12--14-15-10---9--9--12--14-15--10---|
{Guitar 2}

CHOURSE

 C# C# C# C#  D# D# D# D#  E  E  E  E  F# F# F# F#
------------------------------------------------------|
------------------------------------------------------|
------------------------------------------------------|
------------------------------------------------------|
-11-11-11-11--13-13-13-13--14-14-14-14---16-16-16-16--|
--9--9--9--9--11-11-11-11--12-12-12-12---14-14-14-14--|
  D  D  D  D   D  D  D  D   D  D  D  D   D  D  D  D
 Flame On!
 I use to bleed like a suicide mother

 C# C# C# C#  D# D# D# D#  E  E  E  E  F# F# F# F#
------------------------------------------------------|
------------------------------------------------------|
------------------------------------------------------|
------------------------------------------------------|
-11-11-11-11--13-13-13-13--14-14-14-14---16-16-16-16--|
--9--9--9--9--11-11-11-11--12-12-12-12---14-14-14-14--|
  D  D  D  D   D  D  D  D   D  D  D  D   D  D  D  D
 Flame On!
 And now I breathe in this dirty black summer

 C# C# C# C#  D# D# D# D#  E  E  E  E  F# F# F# F#
------------------------------------------------------|
------------------------------------------------------|
------------------------------------------------------|
------------------------------------------------------|
-11-11-11-11--13-13-13-13--14-14-14-14---16-16-16-16--|
--9--9--9--9--11-11-11-11--12-12-12-12---14-14-14-14--|
  D  D  D  D   D  D  D  D   D  D  D  D   D  D  D  D
 Flame On!
 I bought the truth in the mouth of my brother

 C# C# C# C#  D# D# D# D#  E  E  E  E  F# F# F# F#
------------------------------------------------------|
------------------------------------------------------|
------------------------------------------------------|
------------------------------------------------------|
-11-11-11-11--13-13-13-13--14-14-14-14---16-16-16-16--|
--9--9--9--9--11-11-11-11--12-12-12-12---14-14-14-14--|
  D  D  D  D   D  D  D  D   D  D  D  D   D  D  D  D
 Flame On!
 I use to bleed like a suicide mother

 C# C# C# C#  D# D# D# D#  E  E  E  E  F# F# F# F#
------------------------------------------------------|
------------------------------------------------------|
------------------------------------------------------|
------------------------------------------------------|
-11-11-11-11--13-13-13-13--14-14-14-14---16-16-16-16--|
--9--9--9--9--11-11-11-11--12-12-12-12---14-14-14-14--|
  D  D  D  D   D  D  D  D   D  D  D  D   D  D  D  D
 Flame On!
 I use to bleed like a suicide mother

 C# C# C# C#  D# D# D# D#  E  E  E  E  F# F# F# F#
------------------------------------------------------|
------------------------------------------------------|
------------------------------------------------------|
------------------------------------------------------|
-11-11-11-11--13-13-13-13--14-14-14-14---16-16-16-16--|
--9--9--9--9--11-11-11-11--12-12-12-12---14-14-14-14--|
  D  D  D  D   D  D  D  D   D  D  D  D   D  D  D  D
 Flame On!
 And now I breathe in this dirty black summer

 C# C# C# C#  D# D# D# D#  E  E  E  E  F# F# F# F#
------------------------------------------------------|
------------------------------------------------------|
------------------------------------------------------|
------------------------------------------------------|
-11-11-11-11--13-13-13-13--14-14-14-14---16-16-16-16--|
--9--9--9--9--11-11-11-11--12-12-12-12---14-14-14-14--|
  D  D  D  D   D  D  D  D   D  D  D  D   D  D  D  D
 Flame On!
 I bought the truth in the mouth of my brother

 C# C# C# C#  D# D# D# D#  E  E  E  E  F# F# F# F#
------------------------------------------------------|
------------------------------------------------------|
------------------------------------------------------|
------------------------------------------------------|
-11-11-11-11--13-13-13-13--14-14-14-14---16-16-16-16--|
--9--9--9--9--11-11-11-11--12-12-12-12---14-14-14-14--|
  D  D  D  D   D  D  D  D   D  D  D  D   D  D  D  D
 Flame On!
 I use to bleed like a suicide mother, Flame On!(Echo/delay)
Comments