Tony Christie Mimed By Peter Kay - Amarillo Chords & Tabs

 

Amarillo Chords & Tabs

Tony Christie Mimed By Peter Kay Chords & Tabs

Version: 1 Type: Tab 1 rating
1 star 2 stars 3 stars 4 stars 5 stars
comments

Amarillo Tab

Tony Christie mimed by Peter Kay
(Is this the way to) Amarillo
Here it is. It's really easy and fun to play.
Intro
e------------------0-1----------------------0-1-1-----------------------------0-----------1-1-1-0-1---3-----
B-----1-----------1---3-0-------1----------1-----3-0------1-1-3--1---------1-3-----1-3-1------------3-------
G-0-0--0-2-----0-0-------0---0-0-0-2----0-0---------0-----------2--2----2-2-----2-2-----2-------------------
D----------3------------------------3-----------------------------------------------------------------------
A-----------------------------------------------------------------------------------------------------------
E-----------------------------------------------------------------------------------------------------------
Chorus
e-3-3-3-3-3-3-5-----3-3-3-3-3-5-1----3-3-3-3-3-3-5-----0-0-0-1----------------------------------------------
B---------------1-3---------------3-0--------------1-3---------0-3-1-1--------------------------------------
G-----------------------------------------------------------------------------------------------------------
D-----------------------------------------------------------------------------------------------------------
A-----------------------------------------------------------------------------------------------------------
E-----------------------------------------------------------------------------------------------------------
Ending
e-0-0-0-0-0--1-1-1---0-0-0-0-0------------------------------------1-1-1-0----------------------------------------
B------------------------------------3-3-3-----1-3-1------------------------------0-3-1-1---------------------------
G--------------------------------------------------------0-2-0-0-0---------------------------------------------------
D-----------------------------------------------------------------------------------------------------------
A-----------------------------------------------------------------------------------------------------------
E-----------------------------------------------------------------------------------------------------------
This sounds good on both electric and acoustic dependin on tuning (Standard eBGDAE)
This is fun and easy to pick up.
Tabbed by Austin Powers (Yeah Baby, Yeah)


[ Tab from: http://www.guitartabs.cc/tabs/t/tony_christie_mimed_by_peter_kay/amarillo_tab.html ]
Comments