Tony C And The Truth - Medusa Chords & Tabs

 

Medusa Chords & Tabs

Tony C And The Truth Chords & Tabs

Version: 1 Type: Tab 0 ratings
1 star 2 stars 3 stars 4 stars 5 stars
comments

Medusa Tab

   
Song: Medusa 
Artist: Tony C and the Truth
Album: Demonophonic Blues

Tabbed by Brian Kundrod
Any corrections or comments please send to kunie69@hotmail.com

Tuning C-G-C-G-B-E

Intro and Verse

E-------------------------
B-------------------------
G-------------------------
C-0--3--0--6-5--0--3--0
G-0--3--0--6-5--0--3--0
C-0--3--0--6-5--0--3--0       

Listen to song for when to palm mute

Chorus # 1 and 2

E---------------------
B---------------------
G---------------------
C-0---6--5---3-5-3--
G-0---6--5---3-5-3--
C-0---6--5---3-5-3--      repeat 3x

then

E------------------------
B------------------------
G------------------------
C-7-7-7-7-7-7-7-7-7---
G-7-7-7-7-7-7-7-7-7---
C-7-7-7-7-7-7-7-7-7---     

Bridge
[ Tab from: http://www.guitartabs.cc/tabs/t/tony_c_and_the_truth/medusa_tab.html ]
E----------------
B----------------
G----------------
C-0--3--0--6-5-
G-0--3--0--6-5-
C-0--3--0--6-5-    repeat 9x

then

E-------------------
B-------------------
G-------------------
C----3-------6-0---
G----3-------6-0---
C----3-------6-0---    1x

then

E----------------------------
B----------------------------
G----------------------------
C--0--3--0--X-X--X-X--X-
G--0--3--0--X-X--X-X--X-
C--0--3--0--X-X--X-X--X-     4x

Chorus #3 and Outro

E---------------------
B---------------------
G---------------------
C-0---6--5---3-5-3--
G-0---6--5---3-5-3--
C-0---6--5---3-5-3--      repeat 7x

then

E------------------------
B------------------------
G------------------------
C-7-7-7-7-7-7-7-7-7-8-8-8-8-8-8-8-8-9---
G-7-7-7-7-7-7-7-7-7-8-8-8-8-8-8-8-8-9---
C-7-7-7-7-7-7-7-7-7-8-8-8-8-8-8-8-8-9---

E---------------------
B---------------------
G---------------------
C-0---6--5---3-5-3--
G-0---6--5---3-5-3--
C-0---6--5---3-5-3--      

Comments