Tony Bennett - Fly Me To The Moon Chords & Tabs

 

Fly Me To The Moon Chords & Tabs

Tony Bennett Chords & Tabs

Version: 1 Type: Tab 0 ratings
1 star 2 stars 3 stars 4 stars 5 stars
comments

Fly Me To The Moon Tab

Figuring out this song was for my second anniversary, I had to tab it myself as I could
not find anything for it on the internet.
More people need to work on good old songs.

E: 8-7-5----------5-8-7-5-3----------5-3-1-0---0-1-5-4-1-0-----|
B: ------8-6----8-----------6-5----5---------3-------------3-1-|
G: ------------------------------------------------------------|
D: ------------------------------------------------------------|
A: ------------------------------------------------------------|
E: ------------------------------------------------------------|
[ Tab from: http://www.guitartabs.cc/tabs/t/tony_bennett/fly_me_to_the_moon_tab.html ]
E: ----5-5-------------------5-5---------------|
B: -----------13-12-8---------------10-13-12-8-|
G: 6-7-------------------6-7-------------------|
D: --------------------------------------------|
A: --------------------------------------------|
E: --------------------------------------------|

E: 8-7-5----------5-8-7-5-3----------5-3-1-0---0-1-5-4-1-0-----|
B: ------8-6----8-----------6-5----5---------3-------------3-1-|
G: ------------------------------------------------------------|
D: ------------------------------------------------------------|
A: ------------------------------------------------------------|
E: ------------------------------------------------------------|


E: ----5-5----------------------5-5-----------------|
B: -----------10-13-12-8---------------13---12----8-|
G: 6-7----------------------6-7---------------------|
D: -------------------------------------------------|
A: -------------------------------------------------|
E: -------------------------------------------------|
Comments