Tonight Alive - Wasting Away Chords & Tabs

 

Wasting Away Chords & Tabs

Tonight Alive Chords & Tabs

Version: 1 Type: Tab

Wasting Away Tab

   
                                 - Tonight Alive -
                                 - Wasting Away  -
                                 - By Tsukiyo55 (I'M FRENCH) -

DROP D:(DADGBE)


Intro:
  P.P.P.P.P.P.P.P.P.P.P.P.P.P.P.P.P.P.P.P.P.P.P.P.P.P.P.P.P.P.P.P.
E-----------------------------------------------------------------|
B-----------------------------------------------------------------|
G-----------------------------------------------------------------|
D-4-4-4-4-4-4-4-4-0-0-0-0-0-0-0-0-7-7-7-7-7-7-7-7-2-2-2-2-2-2-2-2-|
A-4-4-4-4-4-4-4-4-0-0-0-0-0-0-0-0-7-7-7-7-7-7-7-7-2-2-2-2-2-2-2-2-|
D-4-4-4-4-4-4-4-4-0-0-0-0-0-0-0-0-7-7-7-7-7-7-7-7-2-2-2-2-2-2-2-2-|

 P.P.P.P.P.P.P.P.P.P.P.P.P.P.P.P.P.P.P.P.P.P.P.P.P
E----------------------------------------------------|
B----------------------------------------------------|
G----------------------------------------------------|
D-4-4-4-4-4-4-4-4-0-0-0-0-0-0-0-0-7-7-7-7-7-7-7-7--2-|
A-4-4-4-4-4-4-4-4-0-0-0-0-0-0-0-0-7-7-7-7-7-7-7-7--2-|
D-4-4-4-4-4-4-4-4-0-0-0-0-0-0-0-0-7-7-7-7-7-7-7-7--2-|

[ Tab from: http://www.guitartabs.cc/tabs/t/tonight_alive/wasting_away_tab.html ]
E---------------------------------------------------|
B---------------------------------------------------|
G---------------------------------------------------|
D-0-0-0-0---0-0-0-0---0-2---4-4-4-4---4-4-4-4---2-0-|        X2
A-0-0-0-0---0-0-0-0---0-2---4-4-4-4---4-4-4-4---2-0-|
D-0-0-0-0---0-0-0-0---0-2---4-4-4-4---4-4-4-4---2-0-|

Guitar I:
 PPP.P...PP.PPPPPP.P.PP.PP
E---------------------------|
B---------------------------|
G---------------------------|
D-000-0---00-022444-4-44-20-|
A-000-0---00-022444-4-44-20-|
D-000-0---00-022444-4-44-20-|

Guitar II:

E-5---5---5---5---5-|
B-------------------|
G---7---7---7---7---|
D-------------------|
A-------------------|
D-------------------|


SOLO IS PLAY IN PALM MUT:

E-----------------------------------------------------------------|
B-----------------------------------------------------------------|
G-----------------------------------------------------------------|
D-0-0-0-0-0-0-0-0-2-2-2-2-2-2-2-2-4-4-4-4-4-4-4-4-2-2-2-2-2-2-2-2-|
A-0-0-0-0-0-0-0-0-2-2-2-2-2-2-2-2-4-4-4-4-4-4-4-4-2-2-2-2-2-2-2-2-|
D-0-0-0-0-0-0-0-0-2-2-2-2-2-2-2-2-4-4-4-4-4-4-4-4-2-2-2-2-2-2-2-2-|









 запчасти toyota