Tonic - You Wanted More Chords & Tabs

 

You Wanted More Chords & Tabs

Tonic Chords & Tabs

Version: 1 Type: Tab 1 rating
1 star 2 stars 3 stars 4 stars 5 stars
comments

You Wanted More Tab

Title:You Wanted More
Artist:Tonic
Album:American Pie Sndtrk/Sugar
Tabbed by:Tristan Collins
Email:all_my_fault69@hotmail.com



Tuning:double drop D (DADGBd) but you only need standard drop d for the intro
Capo on 2nd fret

[ Tab from: http://www.guitartabs.cc/tabs/t/tonic/you_wanted_more_tab.html ]
d-------------------------------------------------------------------------------
B-------------------------------------------------------------------------------
G-------------------------------------------------------------------------------
D------------------------5--7-------------------------5--7--5--7----------------
A-----------5------------5--7-------------5-----------5--7--5--7----------------
D-0--5--7-----7---0------5--7----0--5--7----7---0-----5--7--5--7----------------


Or for the lazy bastards who only wanna use standard tuning and dont own a capo

e-------------------------------------------------------------------------------
B-------------------------------------------------------------------------------
G-------------------------------------------------------------------------------
D-----------------------7--9-------------------------7--9--7--9-----------------
A---------7-------------7--9-------------7-----------7--9--7--9-----------------
E-0--5--7---7---0-------5--7----0--5--7----7---0-----5--7--5--7-----------------
Comments