Tonic - Sugar Chords & Tabs

 

Sugar Chords & Tabs

Tonic Chords & Tabs

Version: 1 Type: Tab 0 ratings
1 star 2 stars 3 stars 4 stars 5 stars
comments

Sugar Tab

   
Tonic - "Sugar"

Capo II

Intro/Verse

Guitar 1:
G D Am

Guitar 2:
|--7----7----7----7----5----5----5----5----------------------|
|----------------------------------------------3--------3----|
|----7----7----7----7----7----7----7----7--4h5---4--4h5---4--|
|------------------------------------------------------------|
|------------------------------------------------------------|
|------------------------------------------------------------|

=======================================================================
Chorus

Guitar 1:
G D Am

Guitar 2:
|------7------5--------3---|
|--------------------3-----|
|----7------7------5-------|
|--5------5----------------|
|--------------------------|
|--------------------------|

Riff-thingy

Guitar 1:
C

Guitar 2:
|------------------------------|
|------------------------------|
|------3-------------7---------|
|--3h5---5po3-0--7h9---9po7-5--|
|------------------------------|
|------------------------------|

=======================================================================
Bridge
[ Tab from: http://www.guitartabs.cc/tabs/t/tonic/sugar_tab.html ]
"Show me..."
Both guitars:
|-----------|		|-----------|
|-----------|		|-----------|
|-----5-----|		|-----------|	Play once, then palm mute.
|--3--5--5--|	then    |--5-4-3-2--|   Listen to the CD to get it.
|--3--3--5--|		|--5-4-3-2--|
|--1-----3--|		|--3-2-1-0--|

"I'm givin' you my best..."
Guitar 1:
|--------|
|--------|
|--4--5--|
|--4--5--|
|--2--3--|
|--------|

Guitar 2:
|--2--3--|
|--2--3--|
|--4--5--|
|--4--5--|
|--2--3--|
|--------|

Both guitars:
|-----------------|
|-----------------|
|--4--------------|
|--4--5--4--3--2--|
|--2--5--4--3--2--|
|-----3--2--1--0--|
=======================================================================
Solo

Guitar 1:
G D Am

Guitar 2:
|--/3--5^-5^--5po3--5--5^--5po3--3---------------------|
|-----------------------------------/5--/3--1--/3\--0--|
|------------------------------------------------------|
|------------------------------------------------------|
|------------------------------------------------------|
|------------------------------------------------------|

=======================================================================
Outro
Both guitars:
|--------------|
|--------------|
|--4--5--------|
|--4--5--5--4--|
|--2--3--5--4--|
|--------3--2--|


It's all repeats of the above parts for the rest that I didn't tab...s'not 
hard to figure out on your own.  Good luck, mail me with any requests/suggestions/whatever at kyle_gumby@hotmail.com
Comments