Tonic - Mean To Me Chords & Tabs

 

Mean To Me Chords & Tabs

Tonic Chords & Tabs

Version: 1 Type: Tab 0 ratings
1 star 2 stars 3 stars 4 stars 5 stars
comments

Mean To Me Tab

"Mean to Me" -- Tonic

h  = hammer on
ho = hammer off
^  = bend
/  = slide up
\  = slide down

Capo 2

Intro/Bridge:
(Strum the first chord from the bottom up -- listen to the CD for 
the rythm -- this is also played in the "bridge" right after the solo)
|--0--3--0-----0--0--0--3--0--|
|--1--3--1-----1--1--1--3--1--|
|--2--0--0-----2--0--2--0--0--|
|--2--0--2-0h2-2--2--2--0--2--|
|--0--2--3-----0--3--0--2--3--|
|--0--3--------0-----0--3-----|

Riff 1:
(Strum the chords a few times -- listen to CD)
|--------------------------|
|--------------------------|
|-----------------4--------|
|-----------------4--6--4--|
|--------0-2-4-6--2--6--4--|
|--0-2-4-------------4--2--|
[ Tab from: http://www.guitartabs.cc/tabs/t/tonic/mean_to_me_tab.html ]
Solo:
(Not completely right, but close enough)
|-----------------------------------------------------------|
|-----------------------------------9-9/11------------------|
|--9^-^-^9--99-9^po7-------7--9^-^-^---------7^po5-------7--|
|--------------------9-7h9-------------------------7^po5----|
|-----------------------------------------------------------|
|-----------------------------------------------------------|

|-------------------------------------------|
|---------------------------------9-9/11-9--|
|--9^-^-^99-9^po7-------7--9^-^-^-----------|
|-----------------9-7h9---------------------|
|-------------------------------------------|
|-------------------------------------------|

That's basically it...before the solo, go to an E chord (|022100|) and behind the solo, 
just play the chorus.  You can figure it out...s'not that hard once you listen to the song.  
On the solo, at the |--9^-^-^9--99-9^ho7--| part, bend the 9 three seperate times then hit it 
again and hold it a second, then double pick it real quick and release to the 7.  
Listen to the CD and you'll get the hang of it.  Have fun.
Comments