Tonic - Future Says Run Chords & Tabs

 

Future Says Run Chords & Tabs

Tonic Chords & Tabs

Version: 1 Type: Tab 0 ratings
1 star 2 stars 3 stars 4 stars 5 stars
comments

Future Says Run Tab

   
Artist: Tonic
Song: Future Says Run
Album: Sugar

Tabbed by Freedee

Intro
   Emaj / E
e----------------------------------
B----------------------------------
G--8-9-9-8--9-9-9--8-9-9-8--9-9-9--
D--9-9-9-9--9-9-9--9-9-9-9--9-9-9--
A----------------------------------
E----------------------------------

e--------------------------------------------------
B--------------------------------------------------
G--8-9-9-8--9-9-9--8-9-9-8--9-9-9------------------
D--9-9-9-9--9-9-9--9-9-9-9--9-9-9--11--11--11--11--
A--7-7-7-7--7-7-7--7-7-7-7--7-7-7--11--11--11--11--
E----------------------------------9---9---9---9---


Verse
[ Tab from: http://www.guitartabs.cc/tabs/t/tonic/future_says_run_tab.html ]
   E                               C#m
e--------------------------------------------------
B--------------------------------------------------
G--8-9-9-8--9-9-9--8-9-9-8--9-9-9------------------
D--9-9-9-9--9-9-9--9-9-9-9--9-9-9--11--11--11--11--
A--7-7-7-7--7-7-7--7-7-7-7--7-7-7--11--11--11--11--
E----------------------------------9---9---9---9---  x 3

   B        A   
e-------------------
B-------------------
G--8--------6-------
D--9--------7-------
A--9--------7-------
E--7--------5-------


Chorus

   E    A     C#m  B   
e-------5-----4----7------
B-------5-----5----7------
G--9----6-----6----8------
D--9----7-----6----9------
A--7----7-----4----9------
E-------5----------7------  x 2


Solo over verse chords


Comments