Tomte - Rick Mcphail Song Chords & Tabs

 

Rick Mcphail Song Chords & Tabs

Tomte Chords & Tabs

Version: 1 Type: Tab 0 ratings
1 star 2 stars 3 stars 4 stars 5 stars
comments

Rick Mcphail Song Tab

   
Tomte - The Rick McPhail Song

Stimmung: 	E A E A B E  -  capo 1
		(ich empfehle die gitarre wie folgt zu stimmen
		und das capo auf den 3. Bund zu legen, um das
		reißen der saiten zu vermeiden:
		D G D G A D  -  capo 3

Die Akkorde sind beliebig benannt.. ich weiss nicht, wie sie heissen,
ich denke jedoch, selbst wenn ich es wüsste, tät es nicht viel zur sache, da sie
vermutlich arg fremd wären (Esus2add6/F#) ......
------------------------------------------------------------------------

2 mal intro (=riff 1 wie bei der strophe)

strophe [riff 1]
|--------------------------------------------------------------------|
|--------------------------------------------------------------------|
|-5---5---5-5---5---5---5---5-5-5-5---5---5-5---5---5---5---5-5-5----|
|-3---3---3-3---3---3---3---3-3-3-3---3---3-3---5---5---5---5-5-3----|
|-7---7---7-7---7---7---7---7-7-7-7---7---7-7---7---7---7---7-7-7----|
|-0---0---0-0---0---0---0---2-2-2-3---3---3-3---5---5---5---7-5-3----|
  . . . . . . . . . . . . . . . . . . . . . . . . . . . . . . . .


refrain (anschlag exemplarisch) [riff 2]
|-0-0-0-0-0-0-0-0-0--0-0-0-0-0-0-0-0-0-0-0-0-0-0-0-0-0-0-0-0-0-0-0-0---|
|-0-0-0-0-0-0-0-0-0--0-0-0-0-0-0-0-0-0-0-0-0-0-0-0-0-0-0-0-0-0-0-0-0---|
|-7-7-7-7-7-7-7-7-7\-5-7-5-5-5-5-5-5-7-7-7-7-7-7-7-7-5-5-5-5-5-5-5-5---|
|-7-7-7-7-7-7-7-7-7--5-5-5-5-5-5-5-5-5-5-5-5-5-5-5-5-3-3-3-3-3-3-3-3---|
|-7-7-7-7-7-7-7-7-7\-5-5-5-5-5-5-5-5-7-7-7-7-7-7-7-7-5-5-5-5-5-5-5-5---|
|-0-0-0-0-0-0-0-0-0--5-5-5-5-5-5-5-5-5-5-5-5-5-5-5-5-3-3-3-3-3-3-3-3---|


[ Tab from: http://www.guitartabs.cc/tabs/t/tomte/rick_mcphail_song_tab.html ]
[riff 1]
Ich soll dir Grüße bestellen von jemand aus Berlin
[riff 1]
Er sagt, er hat Probleme, doch er hofft sie verzeihen ihm
[riff 1]
Irgend jemand ist die Cousine von Liv Tyler
[riff 1]
Ich hab vergessen, wer es war
[riff 1]
Da sind Leute in der Stadt, und sie mögen dich benommen
[riff 1]
wenn du Sachen erzählst von früher, und sie denken es wäre ein Witz 
[riff 1]
All den Schmutz den du geschoben hast, und die Leute,
[riff 1]
die sich alle ähnlich sehen


[riff 2]
Ich hänge mit dir rum, 
solange du mir was bringst,
und solange gebe ich dir bedingungslos
was du brauchst
[riff 2]
Frag einfach meine Ex-Freunde
Ich kenne sie nicht mehr, doch sie erinnern sich an mich


[riff 1]
wir hingen herum in den bars dieser stadt die wir nicht kennen
[riff 1]
ich sagte Er das ist kein bier was du da trinkst das ist schuld
[riff 1]
er sagte ok, das wäre das was du nicht hast
[riff 1]
und er meinte was du da trinkst ist kein drink, das ist sünde
[riff 1]
ich sagte cheers, es muss immer mehr in mich rein, 
[riff 1]
damit ich überhaupt an etwas glauben mag
[riff 1]
und du berührtest mein handgelenk und ein blitz zuckte durch meine iris
[riff 1]
du bist kein mensch, du bist heilig heilig

[riff 2]
da sind trümmer am horizont 
da sind feinde in deinem haus
ich rauche solange rick mcphail raucht
[riff 2]
da sind trümmer am horizont 
da sind feinde in deinem haus
ich rauche solange rick mcphail raucht
[riff 2]
da sind trümmer am horizont 
da sind feinde in deinem haus
ich rauche solange rick mcphail raucht
[riff 2]
da sind trümmer am horizont 
da sind feinde in deinem haus
ich rauche solange rick mcphail raucht
[riff 2]
da sind trümmer am horizont 
da sind feinde in deinem haus
ich rauche solange rick mcphail raucht
[riff 2]
da sind trümmer am horizont 
da sind feinde in deinem haus
ich rauche solange rick mcphail raucht

------------------------------------------------------------------------
wenn man mir schreiben mag usw:
benny: 
der.schoenste.tag@gmx.net
------------------------------------------------------------------------
Comments