Tomorrow Never Came - The Springtime Failure Chords & Tabs

 

The Springtime Failure Chords & Tabs

Tomorrow Never Came Chords & Tabs

Version: 1 Type: Tab 0 ratings
1 star 2 stars 3 stars 4 stars 5 stars
comments

The Springtime Failure Tab

By: Skesal
This is a copyrighted original from my band.

Artist: Tomorrow Never Came
Song: The Springtime Failure
Year: 2003
Genre: Punk Rock

INTRO/VERSE. Guitar 1. Play twice for intro and then strum it four times for verse. For the verse add two more chords to each set.
e|--------------------------------------------------------------------|
B|--------------------------------------------------------------------|
G|-77-xx-55-xx-22-xx-33-----------------------------------------------|
D|-77-xx-55-xx-22-xx-33-----------------------------------------------|
A|-55-xx-33-xx-00-xx-11-----------------------------------------------|
E|--------------------------------------------------------------------|

BRIDGE. Guitar 2. 2x
e|--------------------------------------------------------------------|
B|------6------------4------------6------------3-3h4p3----------------|
G|--------7-5-7--------5-3-5--------7-5-7--------------5-3------------|
D|--77-----------55-----------77-----------55-------------------------|
A|--55-----------33-----------55-----------33-------------------------|
E|--------------------------------------------------------------------|
[ Tab from: http://www.guitartabs.cc/tabs/t/tomorrow_never_came/the_springtime_failure_tab.html ]
CHORUS. Guitar 2. 4x. Sorry, not quite sure what guitar 1 plays here. 
e|--------------------------------------------------------------------|
B|--------------------------------------------------------------------|
G|-2222---------------------------------------------------------------|
D|-2222-2222---4444-7777----------------------------------------------|
A|-0000-2222---4444-7777----------------------------------------------|
E|------0000-1-2222-5555----------------------------------------------|

SOLO. Guitar 2. Guitar 1 plays chorus during the solo. 
e|--------------------------------------------------------------------|
B|-/6----------------------3----------6-----------------------3-------|
G|----7-5-7-8-7-5-7--5-3-5---5---5-3----7-5-7-8-7-5h7p5-5-3-5---5---5-|
D|-----------------------------3----------------------------------3---|
A|--------------------------------------------------------------------|
E|--------------------------------------------------------------------|

e|--------------------------------------------------------------------|
B|----6--------3-3h4p3-----1-3-1-3----------6----------------------3--|
G|-3----7-5-7----------5-3---------3-5-3-5----7-5-7-8-7-5-7--5-3-5----|
D|--------------------------------------------------------------------|
A|--------------------------------------------------------------------|
E|--------------------------------------------------------------------|

e|--------------------------------------------------------------------|
B|--------------------------------------------------------------------|
G|-5---5-3~-----------------------------------------------------------|
D|---3----------------------------------------------------------------|
A|--------------------------------------------------------------------|
E|--------------------------------------------------------------------|

Order
Intro/Verse on Guitar 1
Bridge on Guitar 2
Verse on Guitar 1
Chorus on Guitar 2
Bridge on Guitar 2
Intro on Guitar 1
Chorus/Solo on Guitar 1 and 2

I'm guitar 2. hehe







Comments