Tommy Tutone - Jenny 867-5309 Chords & Tabs

 

Jenny 867-5309 Chords & Tabs

Tommy Tutone Chords & Tabs

Version: 4 Type: Tab 0 ratings
1 star 2 stars 3 stars 4 stars 5 stars
comments

Jenny 867-5309 Tab

   
Jenny 867-5309  by: Tommy Tutone


Tab by: Aaron Meredith

Tunning: Standard (E-A-D-G-B-e)


/ =  slide up
\ =  slide down
h =  hammer-on
p = pull-off
~ = let ring
pm= palm mute

Intro Guitar 1: (played through most of the song)
e|------0-------0---------0--------0------|
B|---5--------5--------5--------4-----4---|
G|-6-------7--------6---------4---------4-|
D|----------------------------------------|
A|----------------------------------------|
E|----------------------------------------|

Intro Guitar 2: (after 1st riff plays twice)
e|--------------------------------------|
B|--------3--3--------------------------|
G|--------2--2-----2--2---4--4----------|x2
D|-4--4---0--0-----2--2---4--4----------|
A|-4--4------------0--0---2--2----------|
E|-2--2---------------------------------|


Verse: Guitar 2
e|--------------------------------------------------------------|
B|--------3--3------------------------------3--3----------------|
G|--------2--2----2--2---4--4---------------2--2----2--2---4--4-|x4
D|-4--4---0--0----2--2---4--4--------4--4---0--0----2--2---4--4-|
A|-4--4-----------0--0---2--2--------4--4-----------0--0---2--2-|
E|-2--2------------------------------2--2-----------------------|


Guitar riff: (played a few times during verses)
e|--------------------------------|
B|---5/3-2---3-------2-2--4-4~~---|
G|---6/4-2---2-------2-2--4-4~~---|
D|---------------4----------------|
A|--------------------------------|
E|--------------------------------|


Pre-Chorus: Guitar 2
e|-----0--------------------------------|
B|-----0---------3-3--------------------|
G|-----1---------2-2--------------------|
D|-----2---------0-0--------------------|
A|------------2-------4--0--2-----------|
E|--0-------4---------------------------|

e|-----0----------------------------|
B|-----0----------------------------|
G|-----1---------2------------------|
D|-----2---------2------------------|
A|---------------0----0-2-4-2-------|
E|--0-------0-4---------------------|

e|-----0--------------------------------|
B|-----0---------3-3--------------------|
G|-----1---------2-2--------------------|
D|-----2---------0-0--------------------|
A|------------2-------4--0--2-----------|
E|--0-------4---------------------------|

[ Tab from: http://www.guitartabs.cc/tabs/t/tommy_tutone/jenny_867_5309_tab_ver_4.html ]
Chorus:
e|--------------------------------------------------------------|
B|--------3--3------------------------------3--3----------------|
G|--------2--2----2--2---4--4---------------2--2----2--2---4--4-|x2
D|-4--4---0--0----2--2---4--4--------4--4---0--0----2--2---4--4-|
A|-4--4-----------0--0---2--2--------4--4-----------0--0---2--2-|
E|-2--2------------------------------2--2-----------------------|


Verse: Guitar 3 (pm)
e|----------------------------------------------------------|
B|----------------------------------------------------------|
G|----------------------------------------------------------|x4
D|----------------------------------------------------------|
A|--4--4--5--5--4--4--2--2------4--4--5--5--4--4--2-4-2-0---|
E|---2--2--2--2--2--2--2--2------2--2--2--2--2--2-----------|

Verse: Guitar 2 (first time)                  (second time)
e|---------------------------------|   |-----------2-------------------|
B|--------3--3---------------------|   |---5/3-2---3-------2-2--4-4~~--|
G|--------2--2----2--2---4--4------|x2 |---6/4-2---2-------2-2--4-4~~--|x2
D|-4--4---0--0----2--2---4--4------|   |---------------4---------------|
A|-4--4-----------0--0---2--2------|   |-------------------------------|
E|-2--2----------------------------|   |-------------------------------|


REPEAT PRE-CHORUS:


REPEAT CHORUS:


Bridge: Guitar 2 (pick through chords)
e|--------------0-----------2--------------------------------------|
B|--3-----------0-----------2-----------------------------2----4---|
G|--6-----------1-----------2-----------------------------2----4---|
D|--6-----------2-----------4-----------------------------2----4---|
A|--4-----------2-----------4-----------------------------0----2---|
E|--------------0-----------2--------------------------------------|


REPEAT INTRO: GUITAR 1 (solo comes in)


Solo:
e|--------------------------------------------------------------|
B|----------------------------------------------------------10--|
G|---------------------9---9--11-9p-11h-9p-11h-9p-11h--11~~-----|
D|--9b-7b-------7b--/11--11-------------------------------------|
A|--------9-7-9~------------------------------------------------|
E|--------------------------------------------------------------|

e --------------------------------------------|
B -12b~~~-10-12-----10------------------------|
G ---------------11-----9--11-----9-----------|
D -----------------------------11----11\9-----|
A --------------------------------------------|
E --------------------------------------------|

e -------------------------9--12b--12b~~~--|
B -----------------10--12------------------|
G ----------9--11--------------------------|
D --7-9/11---------------------------------|
A -----------------------------------------|
E -----------------------------------------|

REPEAT PRE-CHORUS:

REPEAT CHORUS: (fade)
Comments