Tommy Tutone - Jenny 867-5309 Chords & Tabs

 

Jenny 867-5309 Chords & Tabs

Tommy Tutone Chords & Tabs

Version: 3 Type: Tab 0 ratings
1 star 2 stars 3 stars 4 stars 5 stars
comments

Jenny 867-5309 Tab

   
Tommy Tutone - Jenny 867-5309
Tabbed by: Paul D.
E-mail: paintindablack31@sbcglobal.net

Tunning: Standard

This song is done with two guitars so I tabbed it out for two guitars but you
can play it with one just by playing the guitar 1 part when only guitar 1 plays
and then play guitar 2's part the rest of the time

Intro:
Guitar 1 plays this riff throughout the entire song without stop
E------0-------0---------0---------------|
B---5--------5--------5--------4--5--4---|
G-6-------7--------6---------4---------4-| 
D----------------------------------------|
A----------------------------------------|
E----------------------------------------|

Guitar 2 starts playing this after guitar 1 plays the first riff twice
E----------------------------------------|
B----------------------------------------|
G--------7--7-----2--2-----4--4----------| 
D--4-----7--7-----2--2-----4--4----------|  x2
A--4-----5--5-----0--0-----2--2----------|
E--2-------------------------------------|

Verse: Guitar 2
Jenny Jenny who can I turn to
e-----------------------------|------------------------------|
B-----------------------------|------------------------------|
G--------7--7----2--2----4--4-|---------7--7----2--2----4--4-| 
D--4-----7--7----2--2----4--4-|---4-----7--7----2--2----4--4-| 
A--4-----5--5----0--0----2--2-|---4-----5--5----0--0----2--2-|
E--2--------------------------|---2--------------------------|
you give me something I can hold on to
e-------------------------------------|------------------------------|
B-------------------------------------|------------------------------|
G--------7--7----2--2----4--4---------|---------7--7----2--2----4--4-| 
D--4-----7--7----2--2----4--4---------|---4-----7--7----2--2----4--4-| 
A--4-----5--5----0--0----2--2---------|---4-----5--5----0--0----2--2-|
E--2----------------------------------|---2--------------------------|
now you think I'm like the others before
e--------------------------------------|------------------------------|
B--------------------------------------|------------------------------|
G--------7--7----2--2----4--4----------|---------7--7----2--2----4--4-| 
D--4-----7--7----2--2----4--4----------|---4-----7--7----2--2----4--4-| 
A--4-----5--5----0--0----2--2----------|---4-----5--5----0--0----2--2-|
E--2-----------------------------------|---2--------------------------|
who saw you name and number on the wall
e--------------------------------------|------------------------------|
B--------------------------------------|------------------------------|
G--------7--7----2--2----4--4----------|---------7--7----2--2----4--4-| 
D--4-----7--7----2--2----4--4----------|---4-----7--7----2--2----4--4-| 
A--4-----5--5----0--0----2--2----------|---4-----5--5----0--0----2--2-|
E--2-----------------------------------|---2--------------------------|





Chorus: Guitar 2
Jenny I got your number
e-----0---------------------------------|
B-----0---------------------------------|
G-----1---------------------------------|
D-----2---------------------------------|
A---------------5-4-0-2-----------------|
E--0-------0-0--------------------------|
      ^
I need to make you mine
e-----0---------------------------------|
B-----0---------------------------------|
G-----1---------------------------------|
D-----2---------------------------------|
A---------------5-4-0-2-----------------|
E--0-------0-0--------------------------|
      ^
Jenny don't change your number
e-----0---------------------------------|
B-----0---------------------------------|
G-----1---------------------------------|
D-----2---------------------------------|
A---------------5-4-0-2-----------------|
E--0-------0-0--------------------------|
      ^
   8    6  7  - 5  3    0  9              8    6  7  - 5  3    0  9
e-------------------------------------|-----------------------------|
B-------------------------------------|-----------------------------|
G-------7--7----2--2----4--4----------|--------7--7----2--2----4--4-| 
D--4----7--7----2--2----4--4----------|---4----7--7----2--2----4--4-| 
A--4----5--5----0--0----2--2----------|---4----5--5----0--0----2--2-|
E--2----------------------------------|---2-------------------------|

   8    6  7  - 5  3    0  9              8    6  7  - 5  3    0  9
e-------------------------------------|-----------------------------|
B-------------------------------------|-----------------------------|
G-------7--7----2--2----4--4----------|--------7--7----2--2----4--4-| 
D--4----7--7----2--2----4--4----------|---4----7--7----2--2----4--4-| 
A--4----5--5----0--0----2--2----------|---4----5--5----0--0----2--2-|
E--2----------------------------------|---2-------------------------|

Verse: Guitar 2
Jenny Jenny your the girl for me
e-------------------------------|------------------------------|
B-------------------------------|------------------------------|
G--------7--7----2--2----4--4---|---------7--7----2--2----4--4-| 
D--4-----7--7----2--2----4--4---|---4-----7--7----2--2----4--4-| 
A--4-----5--5----0--0----2--2---|---4-----5--5----0--0----2--2-|
E--2----------------------------|---2--------------------------|
you don't know me, but you make me so happy
e-----------------------------------------|------------------------------|
B-----------------------------------------|------------------------------|
G--------7--7----2--2----4--4-------------|---------7--7----2--2----4--4-| 
D--4-----7--7----2--2----4--4-------------|---4-----7--7----2--2----4--4-| 
A--4-----5--5----0--0----2--2-------------|---4-----5--5----0--0----2--2-|
E--2--------------------------------------|---2--------------------------|

I tried to call you before but I lost the nerve
e-------------------------------------------|-----------------------------|
B-------------------------------------------|-----------------------------|
G------7--7----2--2----4--4-----------------|--------7--7----2--2----4--4-| 
D--4---7--7----2--2----4--4-----------------|--4-----7--7----2--2----4--4-| 
A--4---5--5----0--0----2--2-----------------|--4-----5--5----0--0----2--2-|
E--2----------------------------------------|--2--------------------------|
I tried my imagination but I was disturbed
e----------------------------------------|------------------------------|
B----------------------------------------|------------------------------|
G--------7--7----2--2----4--4------------|---------7--7----2--2----4--4-| 
D--4-----7--7----2--2----4--4------------|---4-----7--7----2--2----4--4-| 
A--4-----5--5----0--0----2--2------------|---4-----5--5----0--0----2--2-|
E--2-------------------------------------|---2--------------------------|
[ Tab from: http://www.guitartabs.cc/tabs/t/tommy_tutone/jenny_867_5309_tab_ver_3.html ]
Chorus: Guitar 2
Jenny I got your number
e-----0---------------------------------|
B-----0---------------------------------|
G-----1---------------------------------|
D-----2---------------------------------|
A---------------5-4-0-2-----------------|
E--0-------0-0--------------------------|
      ^
I need to make you mine
e-----0---------------------------------|
B-----0---------------------------------|
G-----1---------------------------------|
D-----2---------------------------------|
A---------------5-4-0-2-----------------|
E--0-------0-0--------------------------|
      ^
Jenny don't change your number
e-----0---------------------------------|
B-----0---------------------------------|
G-----1---------------------------------|
D-----2---------------------------------|
A---------------5-4-0-2-----------------|
E--0-------0-0--------------------------|
      ^
   8    6  7  - 5  3    0  9              8    6  7  - 5  3    0  9
e-------------------------------------|-----------------------------|
B-------------------------------------|-----------------------------|
G-------7--7----2--2----4--4----------|--------7--7----2--2----4--4-| 
D--4----7--7----2--2----4--4----------|---4----7--7----2--2----4--4-| 
A--4----5--5----0--0----2--2----------|---4----5--5----0--0----2--2-|
E--2----------------------------------|---2-------------------------|

   8    6  7  - 5  3    0  9              8    6  7  - 5  3    0  9
e-------------------------------------|-----------------------------|
B-------------------------------------|-----------------------------|
G-------7--7----2--2----4--4----------|--------7--7----2--2----4--4-| 
D--4----7--7----2--2----4--4----------|---4----7--7----2--2----4--4-| 
A--4----5--5----0--0----2--2----------|---4----5--5----0--0----2--2-|
E--2----------------------------------|---2-------------------------|


Bridge: Guitar 2
  I got it! (I got it!)      I got your number on the wall... 
e-----------------------------------------------------------------|
B-----------------------------------------------------------------|
G--6-----------------------------------------------------2----4---|
A--4-----------2-----------4-----------------------------0----2---|
E--------------0-----------2--------------------------------------|

  I got it! (I got it!)     For a good time, for a good time call...
e-----------------------------------------------------------------|
B-----------------------------------------------------------------|
G--6-----------------------------------------------------2----4---|
D--6-----------2-----------4-----------------------------2----4---|
A--4-----------2-----------4-----------------------------0----2---|
E--------------0-----------2--------------------------------------|

Guitar 2 stops playing and guitar 1 continues playing. After guitar 1 plays its
riff twice guitar 2 starts the solo while guitar 1 continues. I didn't tab out
the solo so you need to get it somewhere else

Chorus:
Jenny I got your number
e-----0---------------------------------|
B-----0---------------------------------|
G-----1---------------------------------|
D-----2---------------------------------|
A---------------5-4-0-2-----------------|
E--0-------0-0--------------------------|
      ^
I need to make you mine
e-----0---------------------------------|
B-----0---------------------------------|
G-----1---------------------------------|
D-----2---------------------------------|
A---------------5-4-0-2-----------------|
E--0-------0-0--------------------------|
      ^
Jenny don't change your number
e-----0---------------------------------|
B-----0---------------------------------|
G-----1---------------------------------|
D-----2---------------------------------|
A---------------5-4-0-2-----------------|
E--0-------0-0--------------------------|
      ^
   8    6  7  - 5  3    0  9              8    6  7  - 5  3    0  9
e-------------------------------------|-----------------------------|
B-------------------------------------|-----------------------------|
G-------7--7----2--2----4--4----------|--------7--7----2--2----4--4-| 
D--4----7--7----2--2----4--4----------|---4----7--7----2--2----4--4-| 
A--4----5--5----0--0----2--2----------|---4----5--5----0--0----2--2-|
E--2----------------------------------|---2-------------------------|

   8    6  7  - 5  3    0  9              8    6  7  - 5  3    0  9
e-------------------------------------|-----------------------------|
B-------------------------------------|-----------------------------|
G-------7--7----2--2----4--4----------|--------7--7----2--2----4--4-| 
D--4----7--7----2--2----4--4----------|---4----7--7----2--2----4--4-| 
A--4----5--5----0--0----2--2----------|---4----5--5----0--0----2--2-|
E--2----------------------------------|---2-------------------------|

Jenny Jenny who can I turn to    8    6  7 -  5  3    0  9
e----------------------------|-----------------------------|
B----------------------------|-----------------------------|
G-------7--7----2--2----4--4-|--------7--7----2--2----4--4-| 
D--4----7--7----2--2----4--4-|---4----7--7----2--2----4--4-| 
A--4----5--5----0--0----2--2-|---4----5--5----0--0----2--2-|
E--2-------------------------|---2-------------------------|

for the price of a dime I can always turn to you
e-------------------------------------|-----------------------------|
B-------------------------------------|-----------------------------|
G-------7--7----2--2----4--4----------|--------7--7----2--2----4--4-| 
D--4----7--7----2--2----4--4----------|---4----7--7----2--2----4--4-| 
A--4----5--5----0--0----2--2----------|---4----5--5----0--0----2--2-|
E--2----------------------------------|---2-------------------------|

   8    6  7  - 5  3    0  9              8    6  7  - 5  3    0  9
e-------------------------------------|-----------------------------|
B-------------------------------------|-----------------------------|
G-------7--7----2--2----4--4----------|--------7--7----2--2----4--4-| 
D--4----7--7----2--2----4--4----------|---4----7--7----2--2----4--4-| 
A--4----5--5----0--0----2--2----------|---4----5--5----0--0----2--2-|
E--2----------------------------------|---2-------------------------|

   8    6  7  - 5  3    0  9              8    6  7  - 5  3    0  9
e-------------------------------------|-----------------------------|
B-------------------------------------|-----------------------------|
G-------7--7----2--2----4--4----------|--------7--7----2--2----4--4-|repeat 
D--4----7--7----2--2----4--4----------|---4----7--7----2--2----4--4-|to fade
A--4----5--5----0--0----2--2----------|---4----5--5----0--0----2--2-|
E--2----------------------------------|---2-------------------------|

| /  slide up
| \  slide down
| h  hammer-on
| p  pull-off
| r  rest
| ^  upstroke
| ~  vibrato
| +  harmonic
| x  Mute note
Comments