Tommy Tutone - Jenny 867-5309 Chords & Tabs

 

Jenny 867-5309 Chords & Tabs

Tommy Tutone Chords & Tabs

Version: 1 Type: Tab 0 ratings
1 star 2 stars 3 stars 4 stars 5 stars
comments

Jenny 867-5309 Tab

I see this wron all over the net. Here is how it goes. He play's this with
Capo so it's actually a fret higher, but you can play it this way with out the
capo. All the verses are the same.

Rickman


E------0-------0---------0-------0------|--------------------------
B---5--------5--------5--------4----4---|--------3--3--------------
G-6-------7--------6---------4--------4-|--------2--2--2-2--4-4----
D---------------------------------------|---4----0--0--2-2--4-4----
A---------------------------------------|---4----------0-0--2-2----
E---------------------------------------|---2----------------------

   Jenny, Jenny, who can I turn to?

E------------------------------------|-----------------------------
B-------3--3-------------------------|------3--3-------------------
G-------2--2----------2--2---4---4---|------2--2----2--2---4--4----
D--4----0--0----------2--2---4---4---|--4---0--0----2--2---4--4----
A--4------------------0--0---2---2---|--4-----------0--0---2--2----
E--2---------------------------------|--2--------------------------

   Give me something I can hold on to.

E------------------------------------|-------------------------------
B-------3--3-------------------------|----5---5/-3--2--2-------------
G-------2--2----------2--2---4---4---|----4---4/-2--2--3----2--2-4-4-
D--4----0--0----------2--2---4---4---|----0---0--0--0--0----2--2-4-4-
A--4------------------0--0---2---2---|----------------------0--------
E--2---------------------------------|-------------------------------

       Jenny i've      got  your  number    I  need  to  make  you
[ Tab from: http://www.guitartabs.cc/tabs/t/tommy_tutone/jenny_867_5309_tab.html ]
E-----------------------2-----------------|-------------------------
B-----------------------3-----------------|-------------------------
G-----------------------2----------2--4---|----------------2--------
D---2-------------------0----------2--4---|-2--------------2--------
A---2------------------------------0--2---|-2--------------0--------
E---0-------------------------------------|-0-----------------------

  mine    Jenny, don't change your number    8   6     7 5  3 0  9 

E--2----------------------2---------------|--------------------------
B--3----------------------3---------------|----------3-3-------------
G--2----------------------2---------2--4--|----------2-2---2--2--4-4-
D--0--------2-------------0---------2--4--|--4-------0-0---2--2--4-4-
A-----------2-----------------------0--2--|--4-------------0--0--2-2-
E-----------0-----------------------------|--2-----------------------

  I got it! (I got it!)      I got your number on the wall... 

E-----------------------------------------------------------------
B-----------------------------------------------------------------
G--6-----------------------------------------------------2----4---
D--6-----------2-----------4-----------------------------2----4---
A--4-----------2-----------4-----------------------------0----2---
E--------------0-----------2--------------------------------------

  I got it! (I got it!)     For a good time, for a good time call...

E-----------------------------------------------------------------
B-----------------------------------------------------------------
G--6-----------------------------------------------------2----4---
D--6-----------2-----------4-----------------------------2----4---
A--4-----------2-----------4-----------------------------0----2---
E--------------0-----------2--------------------------------------
Comments