Tommy Lee - Hold Me Down Chords & Tabs

 

Hold Me Down Chords & Tabs

Tommy Lee Chords & Tabs

Version: 6 Type: Tab 0 ratings
1 star 2 stars 3 stars 4 stars 5 stars
comments

Hold Me Down Tab

   
Artist: Tommy Lee
Song: Hold Me Down

well, of course, nobody has it tabbed out rite. play it with the song. if ur
tuned rite and playing it right, then my tabs will hum with the song.

Tuning: EADGBe

PS-  listen to song for strum pattern and timing

Verse/Acoustic
e|---------------------------------------|
B|---------------------------------------|
G|-8--6--4----8--6--4----8--6--4-6--11---|
D|-8--6--4----8--6--4----8--6--4-6--11---|
A|-6--4--2----6--4--2----6--4--2-4--9----|
E|-6--4--2----6--4--2----6--4--2-4--9----| play as needed
[ Tab from: http://www.guitartabs.cc/tabs/t/tommy_lee/hold_me_down_tab_ver_6.html ]
Chorus/Heavy Distortion
**note**-the chorus isnt actually strummed out like this (not sure tho), its a
little more complex (double strums and wat not), but if u strum it like this
metronomely, if gives u a general idea of the timing.
u can also add a quick open palm mute rite before the chorus for effect.
e|-----------------------------------------------------------------|
B|-----------------------------------------------------------------|
G|-8-8-8-8-8-8-8-8-9-9-9-9-9-9-9-9-8-8-8-8-8-8-8-8-6-6-6-6-4-4-4-4-|
D|-8-8-8-8-8-8-8-8-9-9-9-9-9-9-9-9-8-8-8-8-8-8-8-8-6-6-6-6-4-4-4-4-|
A|-6-6-6-6-6-6-6-6-7-7-7-7-7-7-7-7-6-6-6-6-6-6-6-6-4-4-4-4-2-2-2-2-|
E|-6-6-6-6-6-6-6-6-7-7-7-7-7-7-7-7-6-6-6-6-6-6-6-6-4-4-4-4-2-2-2-2-| play as needed

2nd Verse Solo/Distortion, with Delay
* = slight, quick bend
^ = heavy bend
~ = ring
x = silence ring
e|-4--------------------------------|
B|-----------4-6*x------------------|
G|---6*x---6---------6-6------------|
D|-----------------------6~~~~4~^~x-|
A|----------------------------------|
E|----------------------------------|

Bridge/Distortion, with a fast flanger or phaser
**note**- this is actually a keyboard i think, but this sounds pretty cool on
guitar too if u can get ur phaser/flanger close to sounding the same.
~ = ring
e|-------11~~~9~~~~-------9--------9~~-|
B|-------------------------------------|
G|-10-11------------10-11----10-11-----|
D|-------------------------------------|
A|-------------------------------------|
E|-------------------------------------| i think this goes on til the end of the
while the chorus riff plays.
Comments