Tommy Lee - Hold Me Down Chords & Tabs

 

Hold Me Down Chords & Tabs

Tommy Lee Chords & Tabs

Version: 1 Type: Tab 0 ratings
1 star 2 stars 3 stars 4 stars 5 stars
comments

Hold Me Down Tab

HOLD ME Down - Tommy Lee
-------------------------------------------------------------------------------
Drop D tuning


Verse
E|--------------------------------------------------------------------
B|--------------------------------------------------------------------
G|-----8-----6-----4--------8-----6-----4--------8-----6-----4-6---11-
D|-----6-----4-----2--------6-----4-----2--------6-----4-----2-4----9-
A|-----6-----4-----2--------6-----4-----2--------6-----4-----2-4----9-
D|-----6-----4-----2--------6-----4-----2--------6-----4-----2-4----9-
[ Tab from: http://www.guitartabs.cc/tabs/t/tommy_lee/hold_me_down_tab.html ]
Chorus
E|-----------------------------------------------------------------
B|-----------------------------------------------------------------
G|-----8---8---8---8--11--11--11--11-----8---8---8---8-----6-----4-
D|-----6---6---6---6---9---9---9---9-----6---6---6---6-----4-----2-
A|-----6---6---6---6---9---9---9---9-----6---6---6---6-----4-----2-
D|-----6---6---6---6---9---9---9---9-----6---6---6---6-----4-----2-

This is the little solo thing after the second chorus
E|--------------------------
B|---4-6--------------------
G|--6-------6-6-------------
D|--------------6-----4-----
A|--------------------------
D|--------------------------

If you have any sugestions or comments mail me at keefer888@hotmail.com Tab by Jon Sumner
Comments