Tommy Lee - Good Times Chords & Tabs

 

Good Times Chords & Tabs

Tommy Lee Chords & Tabs

Version: 2 Type: Tab 0 ratings
1 star 2 stars 3 stars 4 stars 5 stars
comments

Good Times Tab

   
----------------------------------------------------------------------------
			     Good Times - Tommy Lee
----------------------------------------------------------------------------
Tabbed by: TRgtrANDvocals

Tuning:Standard (ebgdae)

Intro/Verse this is played as many times as needed until chorus

   G   G  Dsus2/D/Dsus4/D Cadd9 Cadd9        
e|----333-0232-------------3----3333---------------------------------------|
B|-3--333-3333-------------3----3333---------------------------------------|
G|-0--000-2222-------------0----0000---------------------------------------|
D|-0-----------------------2----2222---------------------------------------|
A|-x-----------------------3----3333---------------------------------------|
E|-3-----------------------------------------------------------------------|

Chorus  i didnt put the strum patterns but it isnt hard to figure out

   G   Cadd9  G/E     D
e|-3-----3-----3------2----------------------------------------------------|
B|-3-----3-----3------3----------------------------------------------------|
G|-0-----0-----0------2----------------------------------------------------|
D|-0-----2-----2------0----------------------------------------------------|
A|-x-----3-----2-----------------------------------------------------------|
E|-3-----------0-----------------------------------------------------------|
[ Tab from: http://www.guitartabs.cc/tabs/t/tommy_lee/good_times_tab_ver_2.html ]
this is played with an electric guitar after the chorus in the background

e|-----------------10------------------------------------------------------|
B|-8---10---10--8----------------------------------------------------------|
G|---7---7-----------------------------------------------------------------|
D|-------------------------------------------------------------------------|
A|-------------------------------------------------------------------------|
E|-------------------------------------------------------------------------|

Bridge  the guitarist plays arpeggios with Am and C but you can just play the
chords it sounds the same   

  Am              C
e|-0--------------0--------------------------------------------------------|
B|-1--------------1--------------------------------------------------------|
G|-2--------------0--------------------------------------------------------|
D|-2--------------2--------------------------------------------------------|
A|-0--------------3--------------------------------------------------------|
E|-------------------------------------------------------------------------|


this really is an easy song if you listen to the song you can easily figure
it out...by the way can anybody believe this is really Tommy Lee?

| /  slide up
| \  slide down
| h  hammer-on
| p  pull-off
| ~  vibrato
| +  harmonic
| x  Mute note
============================================================================
Comments