Tommy Emmanuel - Mombasa Chords & Tabs

 

Mombasa Chords & Tabs

Tommy Emmanuel Chords & Tabs

Version: 1 Type: Tab 0 ratings
1 star 2 stars 3 stars 4 stars 5 stars
comments

Mombasa Tab

tabbed by Samus

this is just the second chorus bit

playx1
[ Tab from: http://www.guitartabs.cc/tabs/t/tommy_emmanuel/mombasa_tab.html ]
e-4-2-0---------0-----0-0-2s4-2----0-0
b-------0-2-2-0----------------2-4----
g-----------------3-3-----------------
d-------------------------------------
a-------------------------------------
e-------------------------------------

e-4-2-0---------0-----0---------------------
b-------0-2-2-0---------4-2-0-2-4-5-7-7-7---
g-----------------3-3-----------------------
d-------------------------------------------
a----------------------------------------0-0
e-------------------------------------------

sorry but thats all I get
Comments