Tommy Bolin - Teaser Chords & Tabs

 

Teaser Chords & Tabs

Tommy Bolin Chords & Tabs

Version: 1 Type: Tab 0 ratings
1 star 2 stars 3 stars 4 stars 5 stars
comments

Teaser Tab

TEASER
Tommy Bolin
Transcribed by Corey Walker

       M.M. = 112

(7 X                     
(7 X                   ~~
|-----||-------------------||------------------||-------------------||-------------------|
|-----||o-----------------o||------------------||o-----------------o||-------------------|
|-----||-------------------||------------------||-------------------||-------------------|
|-----||-------------------||------------------||-------------------||-------------------|
|-----||o-----7-----5---4-o||----4---5---6--/7-||o-----7-----5---4-o||----4---5---6--/7--|
|-12\-||--0-0---0-4---7----||--7---7---7-------||--0-0---0-4---7----||--7---7---7--------|
                (7 X 
||-------------------||---------------------|-----------------|----------------|
||o-----------------o||---------------------|-----------------|----------------|
||-------------------||-9-9-9-9-9-x-x-9-x-x-|-7--7--7/-9\-7---|-2--2--2/-4\-2--|
||-------------------||-9-9-9-9-9-x-x-9-x-x-|-7--7--7/-9\-7---|-2--2--2/-4\-2--|
||o-----7-----5---4-o||-7-7-7-7-7-x-x-7-x-x-|-5--5------------|-0--0-----------|
||--0-0---0-4---7----||---------------------|-----------------|----------------|

    PM     ~  PM    
PM     ~ PM     ~
||---------------------||-------------------------|---------------------------||----------------------||
||o-------------------o||-------------------------|---------------------------||o--------------------o||
||------7/-9-----7/-9--||-7-x-x-7-x-x-7-x-x-7-x-x-|-2-x-x-2-x-xh2-4-x-x-2-x-x-||------7/-9-----7/-9---||
||------7/-9-----7/-9--||-7-x-x-7-x-x-7-x-x-7-x-x-|-2-x-x-2-x-xh2-4-x-x-2-x-x-||------7/-9-----7/-9---||
||o-------------------o||-5-x-x-5-x-x-5-x-x-5-x-x-|-0-x-x-0-x-x-----x-x-0-x-x-||o--------------------o||
||--0-0------0-0-------||-------------------------|---------------------------||--0-0------0-0--------||


(7 X                  ~~                  
X 
|-----------||-------------------||------------------||--------------------||
|-----------||o-----------------o||------------------||o------------------o||
|-7----2----||-------------------||------------------||--------------------||
|-7----2----||-------------------||------------------||--------------------||
|-5----0----||o-----7-----5---4-o||----4---5---6--/7-||o-----7-----5---4--o||
|-----------||--0-0---0-4---7----||--7---7---7-------||--0-0---0-4---7-----||

                
(7 X 
|------------------||-------------------||-----------------|-----|----|
|------------------||o-----------------o||-----------------|-----|----|
|------------------||-------------------||-9-9-9-9-9-9-9-9-|-7---|-2--|
|------------------||-------------------||-9-9-9-9-9-9-9-9-|-7---|-2--|
|----4---5---6--/7-||o-----7-----5---4-o||-7-7-7-7-7-7-7-7-|-5---|-0--|
|--7---7---7-------||--0-0---0-4---7----||-----------------|-----|----|

    PM      ~ PM     
~             PM     ~ PM     ~
||----------------------||------------|-----------||----------------------||
||o--------------------o||------------|-----------||o--------------------o||
||-------7/-9-----7/-9--||-\7------7\-|-2---------||------7/-9-----7/-9---||
||-------7/-9-----7/-9--||-\7------7\-|-2------7\-||------7/-9-----7/-9---||
||o--------------------o||------------|--------7\-||o--------------------o||
||--\0-0------0-0-------||------------|-----------||--0-0------0-0--------||
[ Tab from: http://www.guitartabs.cc/tabs/t/tommy_bolin/teaser_tab.html ]
(3 X       (3 X let ring (*play a bit behind the beat)
||------------|-0---------||-||--(0)---------||-------|
||o-----------|-0--------o||-||o-(0)--------o||-------|
||--7----2----|-1---------||-||--(1)---------||-9\-7--|
||--7----2----|-2---------||-||--(2)---------||-9\-7--|
||o-5----0----|-2--------o||-||o-(2)--------o||-------|
||------------|-0---------||-||--(0)---------||-------|


|-------------|-------------|---------|------|
|-------------|-------------|---------|------|
|-(7)-------7-|-(7)/9-------|---------|-9\7--|
|-(7)-------7-|-(7)/9-------|---------|-9\7--|
|-------------|-------------|---------|------|
|-------------|-------------|---------|------|



~
|----------|-------------|---------|-------------|-----------|
|----------|-------------|---------|-------------|-----------|
|-(7)----7-|-(7)-9\------|-------9-|-(9)\7-------|-(7)--(7)--|
|-(7)----7-|-(7)-9\------|-------9-|-(9)\7-------|-(7)--(7)--|
|----------|-------------|---------|-------------|-----------|
|----------|-------------|---------|-------------|-----------|



~             ~       ~
|-----------|----------|-------------|----------------|
|-----------|----------|-------------|----------------|
|-7/-9\-----|-------9--|-(9)\7-------|-(7)-7--(7)--7--|
|-7/-9\-----|-------9--|-(9)\7-------|-(7)-7--(7)--7--|
|-----------|----------|-------------|----------------|
|-----------|----------|-------------|----------------|



~             ~       ~
|-------------|----------|-------------|----------------|
|-------------|----------|-------------|----------------|
|-(7)-9\------|--------9-|-(9)\7-------|-(7)-7---(7)-7--|
|-(7)-9\------|--------9-|-(9)\7-------|-(7)-7---(7)-7--|
|-------------|----------|-------------|----------------|
|-------------|----------|-------------|----------------|


      ~       
~       ~         ~       
~       ~
|-----------------|-----------------|-----------------|----------------|
|-----------------|-----------------|-----------------|----------------|
|-(7)-9---(9)-9---|-(9)-9---(9)-9---|-(9)-7---(7)-7---|-(7)-7---(7)-7--|
|-(7)-9---(9)-9---|-(9)-9---(9)-9---|-(9)-7---(7)-7---|-(7)-7---(7)-7--|
|-----------------|-----------------|-----------------|----------------|
|-----------------|-----------------|-----------------|----------------|


      ~       
~
|-----------------|-----------------|----------|----|
|-----------------|-----------------|----------|----|
|-(7)-9---(9)-9---|-(9)-9---(9)-9\--|-7--------|-2--|
|-(7)-9---(9)-9---|-(9)-9---(9)-9\--|-7--------|-2--|
|-----------------|-----------------|-5--------|-0--|
|-----------------|-----------------|----------|----|

    PM     ~ PM     
~~~~~~~~~~      PM     ~ PM     ~
||---------------------||-2--------|-----------------||----------------------||
||o-------------------o||-3--------|-----------------||o--------------------o||
||------7/-9-----7/-9--||-2--------|--2--2b4r2---2---||------7/-9-----7/-9---||
||------7/-9-----7/-9--||-0--------|--2---(2)--------||------7/-9-----7/-9---||
||o-------------------o||----------|-\0---(0)--------||o--------------------o||
||--0-0------0-0-------||----------|-----------------||--0-0------0-0--------||


PM     ~ PM     ~
|----------|----------||---------------------||-----------|
|----------|----------||o-------------------o||-----------|
|-7--------|-2--------||------7/-9-----7/-9--||-7----2----|
|-7--------|-2--------||------7/-9-----7/-9--||-7----2----|
|-5--------|-0--------||o-------------------o||-5----0----|
|----------|----------||--0-0------0-0-------||-----------|
             (let ring out)
|------------||--------||
|------------||o------o||
|------------||--------||
|-------2----||--(2)---||
|-------2----||o-(2)--o||
|-12\---0----||--(0)---||
Comments