Tomlin Chris - Famous One Chords & Tabs

 

Famous One Chords & Tabs

Tomlin Chris Chords & Tabs

Version: 1 Type: Tab 1 rating
1 star 2 stars 3 stars 4 stars 5 stars
comments

Famous One Tab

-------------------------------------------------------------------------------
                      FAMOUS ONE - Chris Tomlin
-------------------------------------------------------------------------------

By:  Gary(incuthrice07@gawab.com)

>   - strumming not defined
~   - let ring out
5x
5x  - mute after strumming
3x
/  - slide

GUITAR 1'S PARTS:
-----------------
Intro:
e|-------|
B|-------|
G|-------|
D|--5>---|
A|--5>---|
E|--3>---|

Chorus:
e|---------------------------------------------------------------------------|
B|---------------------------------------------------------------------------|
G|-----------------------5------------------------7-------------5------------|
D|5------------5---------5----------2-------------7-------------5------------|
A|5------------2---------3----------2-------------5-------------3------------|
E|3---------------------------------0----------------------------------------|
  You are the Lord, the famous one, great is your name in all the earth

Chorus Cont'd:
e|---------------------------------------------------------------------------|
B|---------------------------------------------------------------------------|
G|----------------------------5-----------------------7----------------------|
D|-----5-------5--------------5--------2--------------7---------5------------|
A|-----5-------2--------------3--------2--------------5---------5------------|
E|-----3-------------------------------0------------------------3------------|
  the heavens declare you're glorious, great is your fame beyond the earth

Bridge:
e|---------------------------------------------------------------------------|
B|---------------------------------------------------------------------------|
G|----------------5>---5x----------------------------------------------------|
D|-5>---5>---3>---5>---5x----------------------------------------------------|
A|-5>---2>---3>---3>---3x----------------------------------------------------|
E|-3>--------1>--------------------------------------------------------------|

Verse:
e|--------0-------------------------------------------------------------------|
B|--------0-------------------------------------------------------------------|
G|--------2-----------------------------------5-------------------------------|
D|--------2-------------------2---------------5----------------5--------------|
A|--------0-------------------2---------------3----------------5--------------|
E|----------------------------0--------------------------------3--------------|
  And for all you've done and yet to do, with every breath I'll praise you

Verse:
e|0---------------------------------------------------------------------------|
B|0---------------------------------------------------------------------------|
G|2-------------------------------------------5-----------------7-------------|
D|2---------------------2---------------------5-----------------7-------------|
A|0---------------------2---------------------3-----------------5-------------|
E|----------------------0-----------------------------------------------------|
  Desire of the nations and every heart, you alone are God, you alone are God

Repeat Chorus

Repeat Bridge
[ Tab from: http://www.guitartabs.cc/tabs/t/tomlin_chris/famous_one_tab.html ]
2nd Verse:
e|----0-----------------------------------------------------------------------|
B|----0-----------------------------------------------------------------------|
G|----2------------------------------------5----------------------------------|
D|----2--------------2---------------------5-----------5----------------------|
A|----0--------------2---------------------3-----------5----------------------|
E|-------------------0---------------------------------3----------------------|
  The morning star is shining through, and every eye is watching you

e|---0------------------------------------------------------------------------|
B|---0------------------------------------------------------------------------|
G|---2----------------------------------5-------------------7-----------------|
D|---2---------------2------------------5-------------------7-----------------|
A|---0---------------2------------------3-------------------5-----------------|
E|-------------------0--------------------------------------------------------|
  We live by nature and miracles, you are beautiful, you are beautiful

Repeat Chorus 2x

Repeat Bridge

Repeat Chorus 2x

GUITAR 2'S PARTS:
-----------------
Intro:
e|-------|
B|-------|
G|-------|
D|-5>----|
A|-5>----|
E|-3>----|

Verse:  (Same as guitar 1)

Bridge:
e|---------------------------------------------------------------------------|
B|---------------------------------------------------------------------------|
G|14-14-14-11-11-11-12-12-12-12-12-12-14-14-14-11-11-11-12-12-12-12-12-12----|
D|-x--x--x--x--x--x--x--x--x--x--x--x--x--x--x--x--x--x--x--x--x--x--x--x----|
A|12-12-12--9--9--9-10-10-10-10-10-10-12-12-12--9--9--9-10-10-10-10-10-10----|
E|---------------------------------------------------------------------------|

Bridge Cont'd:
e|---------------------------------------------------------------------------|
B|---------------------------------------------------------------------------|
G|12-12-12-9-9-9-10-10-10-10-10-10-12-12-12-9-9-9-10-10-10-10x---------------|
D|-x--x--x-x-x-x--x--x--x--x--x--x--x--x--x-x-x-x--x--x--x--x----------------|
A|10-10-10-7-7-7--8--8--8--8--8--8-10-10-10-7-7-7--8--8--8--8x---------------|
E|---------------------------------------------------------------------------|

Verse:  (Listen for when it comes in)
e|----15-------14------12-----10~-------|
B|--------------------------------------|
G|/12----12-11----11-9----9-7~----------|
D|--------------------------------------|
A|--------------------------------------|
E|--------------------------------------|

Verse Cont'd:  (Repeat whole verse 1 more time)
e|----------------12-----10~------------------|
B|---8-----10---------------------------------|
G|/5---5-7----7-9----9-7~---------------------|
D|--------------------------------------------|
A|--------------------------------------------|
E|--------------------------------------------|

Chorus:  (Same as guitar 1)

Repeat Bridge

Repeat Verse

Repeat Chorus 2x

Repeat Bridge

Repeat Chorus 2x

Chris Tomlin is awesome!  E-mail me any tab requests or questions you may have.
Gary(incuthrice07@gawab.com)
===============================================================================
Comments