Tomahawk - Sir Yes Sir Chords & Tabs

 

Sir Yes Sir Chords & Tabs

Tomahawk Chords & Tabs

Version: 2 Type: Bass Tab 0 ratings
1 star 2 stars 3 stars 4 stars 5 stars
comments

Sir Yes Sir Bass Tab

Band: Tomahawk
Album: Tomahawk
Bassist: Kevin Rutmanis

Note: everytime you play the intro riff you must do it palm muting the strings, except from 01:55 to the 
(where it gots heavy)

Notation:
/ or \ = Slide up & down

Time notation for the intro of this song is 5/6 if you have problems to pick the line, think it this way: 
5 high hat hits the riff loops

    <    X   16    >
G|---------------------|
D|---------------------|
A|---------2-------1---|
E|-0-1-2-4---0-1-2---2-|

00:25
Chorus
( use overdrive)
   <   X  7  >
G|-------------|---------------|
D|-------------|---------------|
A|-44----------|-44------------|
E|-11--1---1-1-|-11--1---1-12\-|

Repeat all, then
[ Tab from: http://www.guitartabs.cc/tabs/t/tomahawk/sir_yes_sir_btab_ver_2.html ]
    <    X    8    >
G|---------------------|
D|---------------------|
A|---------2-------1---|
E|-0-1-2-4---0-1-2---2-|

01:28
   <   X  2  >     <   X   2 >    <   X  2  >
G|--------------|--------------|--------------|
D|--------------|--------------|--------------|
A|-22--2---22-2-|-11--1---11-1-|--------------|
E|--------------|--------------|-44--4---44-4-|

G|--------------|--------------|------------------|
D|--------------|--------------|------------------|
A|--------------|--------------|---------------7\-|
E|-66--6---66-6-|-66--6---66-7-|-66--6---0/12\----|

01:43
     <    X    8  >
G|---------------------|
D|---------------------|
A|---------2-------1---|
E|-0-1-2-4---0-1-2---2-|

01:55
    <    X    7   >
G|---------------------|----------------------|
D|---------------------|----------------------|
A|---------2-------1---|---------2-------1----|
E|-0-1-2-4---0-1-2---2-|-0-1-2-4---0-1-2---4\-|
Comments