Tomahawk - Laredo Chords & Tabs

 

Laredo Chords & Tabs

Tomahawk Chords & Tabs

Version: 1 Type: Bass Tab 0 ratings
1 star 2 stars 3 stars 4 stars 5 stars
comments

Laredo Bass Tab

   
 ^ Bend down
/ Slide down

Intro:
G|--------------------------------------------------|
D|--------------------------------------------------|
A|--------------------------------------------------|
E|------2-------------2---------------2-----------2-|

Verse:  
G|-------------------------------------|
D|-------------------------------------|
A|----------4^--5-5----------4^--5-5---|
E|----2-----------------2--------------|
[ Tab from: http://www.guitartabs.cc/tabs/t/tomahawk/laredo_btab.html ]
Chorus:   The cats in the bag.....
G|-------------------------------|
D|-------------------------------|
A|-10-10-10-10-10-10-9-9-9-9-9-9-|
E|-------------------------------|

G|--------------------------|
D|--------------------------|
A|-7-7-7-7-7-7--6-6-6-6-6-6-|
E|--------------------------|

              Stolen From A Shoe box.........
G|------------------------------------|
D|------------------------------------|
A|------7-----5-----------7-----5-----|
E|------------------------------------|

Guitar Solo:    (Just continuously slide up and down)
G|----------------------------------------------|
D|----------------------------------------------|
A|----------------------------------------------|
E|--1/15----1/15----1/15----1/15----1/15---1/15-|
Comments