Tomahawk - Jockstrap Chords & Tabs

 

Jockstrap Chords & Tabs

Tomahawk Chords & Tabs

Version: 1 Type: Tab 0 ratings
1 star 2 stars 3 stars 4 stars 5 stars
comments

Jockstrap Tab

Guitar tuned EADGBe
12/8 time

Legenda
r - release bend
b - bend
h - hammer on
+ - mute ringing string
x - mute string
= - rapid picking
\ - slide down
P - palm mute

Main riff/verse (half time feel)
B-|-11------11----------------11------|-11----------------11------11------|
G-|------12------12r(10)--b12------12-|------12r(10)--b12------12------12-|
   NB: the '12' on the G-string is actually a pre-bent '10'

Chorus
D-|-------0h3h5-3---5-+-----|-0h3h5-3---5-+-x-5-3---5-|
A-|-----1-------3---5-+---1-|-------3---5-+-x-5-3---5-|
   sometimes also heard:
D-|-------0h3h5-3---5-+-----|-0h3h5-3---5-3---5-3---5-|
A-|-----1-------3---5-+---1-|-------3---5-3---5-3---5-|
[ Tab from: http://www.guitartabs.cc/tabs/t/tomahawk/jockstrap_tab.html ]
The second chorus contains some alternate 2nd bars. I'm not about to tab out all those 
variations, partly out of laziness, partly out of respect for the individual guitarist
who (like myself) hates playing solos someone else came up with. So improvise along.
Be sure to end with this though:
e-|-13-----------------15-----|-18--------------------18\|
B-|-15-----------------17-----|-20--------------------20\|
    ==========================  ======================

Bridge
A-|-------------------------|------------x-x-x-x---x-|
E-|-------------------------|------------x-x-x-x---x-|

G-|-------------------------|------------------15--\(14)|
D-|-------------------------|------------------16--\(15)|

G-|(14)---------------------|------------------8--\(7)|
D-|(15)---------------------|------------------9--\(8)|

G-|(7)----------------------|------------------13--\(12)|
D-|(8)----------------------|------------------14--\(13)|

G-|(12)---------------------|------------------6--\(5)|
D-|(13)---------------------|------------------8--\(7)|

G-|(5)----------------------|------------------10--\(9)-|
D-|(7)----------------------|------------------11--\(10)|

G-|(9)----------------------|------------------3--\(2)|
D-|(10)---------------------|------------------4--\(3)|

G-|(2)----------------------|------------------8--\(7)|
D-|(3)----------------------|------------------9--\(8)|

E-|-3-3-3-3-3-3-3-3-3-3-3-3-|-3-3-3-3-3-3-3-3-3-3-3-3-|
    P P P P P P P P P P P P

Back to the chorus
Comments