Tomahawk - God Hates A Coward Chords & Tabs

 

God Hates A Coward Chords & Tabs

Tomahawk Chords & Tabs

Version: 1 Type: Tab 0 ratings
1 star 2 stars 3 stars 4 stars 5 stars
comments

God Hates A Coward Tab

Tomahawk - God Hates A Coward
Album: Tomahawk
Guitatrist: Duane Denison
Tuning EADGBe
4/4 time

Verse (palm muted throughout)

D-|6---6---------7---7-------------|8---8---------4---4-------------|
A-|--4---4-5-4-4---4---4-4-5-4-4-4-|--4---4-5-4-4---4---4-4-7-7-7-7-|
E-|--------------------------------|------------------------5-5-5-5-|

A-|6---6---------7---7-------------|8---8---------4---4-----2-2-2-2-|
E-|--4---4-5-4-4---4---4-4-5-4-4-4-|--4---4-5-4-4---4---4-4-0-0-0-0-|

Chorus (no palm mute)
[ Tab from: http://www.guitartabs.cc/tabs/t/tomahawk/god_hates_a_coward_tab.html ]
D-|6---6-6-6-6-6-7---7-7-7-7-7-7-7-|8---8-8-8-8-8-4---4-4-4---------|
A-|4---4-4-5-4-4-4---4-4-4-5-4-4-4-|4---4-4-5-4-4-4---4-4-4-7-7-7-7-|
E-|--------------------------------|------------------------5-5-5-5-|

A-|6---6-6-6-6-6-7---7-7-7-7-7-7-7-|8---8-8-8-8-8-4---4-4-4-2-2-2-2-|
E-|4---4-4-5-4-4-4---4-4-4-5-4-4-4-|4---4-4-5-4-4-4---4-4-4-0-0-0-0-|

Interlude

E-|2-2-2-------2-2-----------------|
 pm_______________

Repeat the above 7 times, then play:
G-|-------------1------------------|
D-|-------------2------------------|
A-|--------------------------------|
E-|2-2-2------2--------------------|
 pm____________

Enjoy
Comments