Tomahawk - God Hates A Coward Chords & Tabs

 

God Hates A Coward Chords & Tabs

Tomahawk Chords & Tabs

Version: 1 Type: Chords 0 ratings
1 star 2 stars 3 stars 4 stars 5 stars
comments

God Hates A Coward Chords

   
)                              (x2)
G|--------------------------------------------------|---------------------------------|
D|--------------------------------------------------|---------------------------------|
A|-----4--4--5---4-----4---4--5---4--5--4-5--4-0----|---------------------------------|
E|--------------------------------------------------|--4-4-5--4---4-4-5--4-5-4-5-4-0--|
        I’ll sow my seeds..............
             

                 (x4)                  (x4)
G|------------------|---------------------|
D|------------------|---------------------|
A|-----4-4-4-4-5-4--|---------------------|
E|------------------|-----4-4-4-4-5-4-----|
        Day By Day................

G|-----------------------------------------------------|
D|-----------------------------------------------------|
A|-----------------------------------------------------|
E|---2-2-----2-2-------2-2-----2-2------2-2------------|
          Listen Closely To Your Mother................
[ Tab from: http://www.guitartabs.cc/tabs/t/tomahawk/god_hates_a_coward_crd.html ]

--------------------------------------------------------------------------------

Transcribed by Thomas Remedies
Email: manson@yahoo.com 

Intro/Verse/Chorus (Main riff):
G|-----------------------------|
D|-----------------------------|
A|-5--5--6p5--5--5h6p5-6p5-5-5-|
E|-----------------------------|

G|-----------------------------|
D|-----------------------------|
A|-5--5--6p5--5--5h6p5-1-1-1-1-|
E|-----------------------------|

G|-----------------------------|
D|-----------------------------|
A|-0--0--1p0--0--0h1p0-1p0-0-0-|
E|-----------------------------|

G|-----------------------------|
D|-----------------------------|
A|-0--0--1p0--0--0h1p0---------|
E|---------------------1-1-1-1-|


Riff 2 (1:19)
G|-----|-----|
D|-----|-----|
A|-----|-----|  x8
E|-5-5-|-5-5-|

after 8th time:
G|-----|
D|-----|
A|-----|
E|-5/1-|

Then play Main riff until end of song.

--------------------------------------------------------------------------------
Comments