Tom Waits - Hoist That Rag Chords & Tabs

 

Hoist That Rag Chords & Tabs

Tom Waits Chords & Tabs

Version: 1 Type: Tab 0 ratings
1 star 2 stars 3 stars 4 stars 5 stars
comments

Hoist That Rag Tab

-------------------------------------------------------------------------------
			     Hoist That Rag - Tom Waits
-------------------------------------------------------------------------------
Tabbed by:  SDLJunkie
Email:flatoutinc@hotmail.com

Tuning: Standard
[ Tab from: http://www.guitartabs.cc/tabs/t/tom_waits/hoist_that_rag_tab.html ]
e|--5---6---3---5------------------------------------------------------------|
B|--6---6---3---5------------------------------------------------------------|
G|--7---7---3---6------------------------------------------------------------|
D|--7---8---5---7------------------------------------------------------------|
A|--5---8---5---7------------------------------------------------------------|
E|--5---6---3---5------------------------------------------------------------|

This is the main riff...Tom is...Real Gone
Comments