Tom Vek - If You Want Chords & Tabs

 

If You Want Chords & Tabs

Tom Vek Chords & Tabs

Version: 1 Type: Bass Tab

If You Want Bass Tab

Tom Vek – If You Want…
This song is made up of 3 main riffs, there is a bass solo but it’s more improv’ I just 
it when I play it…. ENJOY
Please Rate, i have checked and double checked this it should be good....

Riff one….
|(S)2-2-2-2-2-2-2-2-2-2-2-------------------------------------------------------------|
|--------------------------------------------(S)2-2---------------(S)4-4--------------|
|------------------------------------(P)0/2----------------(P)2/4---------------------|
|------------------------------(P)6------------------(P)2-----------------(P)4--------|
[ Tab from: http://www.guitartabs.cc/tabs/t/tom_vek/if_you_want_btab.html ]
Riff two….
|------------------------------------------------------------------|
|-2-2-2-2-2-2-2-2--4-4-4-4--5-5------------------------------------|
|------------------------------------------------------------------|
|------------------------------------------------------------------|

Riff Three…
|-2-2-2-2--0-0--------------------------------------------------------|
|----------------0--2-2-2-2--0-0--------------------------------------|
|-----------------------------------2---------------------------------|
|---------------------------------------------------------------------|
S= Slap
P=Pop