Tom Petty - Running Down A Dream Chords & Tabs

 

Running Down A Dream Chords & Tabs

Tom Petty Chords & Tabs

Version: 2 Type: Tab 0 ratings
1 star 2 stars 3 stars 4 stars 5 stars
comments

Running Down A Dream Tab

   
                                         Tom Petty
                                     Running Down a Dream



Signature Riff

E----------------------E
B----------------------B
G-----------------1-1--G
D-----------------2-2--D
A-----------------2-2--A
E-0-7-0-6-0-5-0-3------E

Part A
[ Tab from: http://www.guitartabs.cc/tabs/t/tom_petty/running_down_a_dream_tab_ver_2.html ]
E--------------------------------------------------------------------------------------------3---------------------E
B--------------------------------------------------------------------------------------------2---------------------B
G----------------1-1----------------1-1---------------------1-1-------------------1-1--------3----1----------------G
D----------------2-2----------------2-2---------------------2-2-------------------2-2-------------2----------------D
A----------------2-2----------------2-2---------------------2-2-------------------2-2-------------2----------------A
E-0-7-0-6-0-5-0-3----0-7-0-6-0-5-0-3-----0-7-0-6-0-5-0-4-0-3-----0-7-0-6-0-5-0-0-3-----------------0-7-0-6-0-5-0-3-E

Part B

E-2-3-----3-2-2-3-----3-2-2-3--E
B-2-3-----3-2-2-3-----3-2-2-3--B
G-2---1-1---2-2---1-1---2-2---1G
D-0---2-2---0-0---2-2---0-0---2D
A---2-2-2-2-----2-2-2-2-----2-2A
E---3-----3-----3-----3-----3--E

Interlude

Rhythm Guitar:E---3-----3-E
              B-1-2---1-2-B
              G---3-1---3-G
              D-2---2-2---D
              A-3---2-3---A
              E-----------E

Lead Guitar: Continue Signature Riff until solo.
Comments