Tom Petty - Refugee Chords & Tabs

 

Refugee Chords & Tabs

Tom Petty Chords & Tabs

Version: 1 Type: Tab 0 ratings
1 star 2 stars 3 stars 4 stars 5 stars
comments

Refugee Tab

   
-----------------------------------------------------------------------------
			  REFUGEE -Tom Petty
-----------------------------------------------------------------------------
Tabbed by:ryan
Email:sportsman_13579@hotmail.com
[ Tab from: http://www.guitartabs.cc/tabs/t/tom_petty/refugee_tab.html ]
Tuning:standard eBGDAE
  Intro is like this
e|-------2------------------0--------------------------------------|
B|-------2------------------0--------------------------------------|
G|-------2------------------1--------------------------------------|
D|----4--4------4--6--7-----2--------------------------------------|  X 2
A|----4--4------4--6--7-----2------------- ------------------------|
E|----2--2------2--4--5-----0--------------------------------------|
after that another guitar comes in over those chords with this
e|-----------------------------------------------------------------|
B|-----------------------------------------5/7-7\------------------|
G|----------------4h6p4------------4h6p4---------------------------|
D|-2/4--4h6-7-----------2/4-6-7------------------------------------|
A|-----------------------------------------------------------------| 
E|-----------------------------------------------------------------|
then on the verses this is played very softly
e|-------2------------------0-~------------------------------------|
B|-------2------------------0-~------------------------------------|
G|-------2------------------1--------------------------------------|
D|----4--4------4--6--7-----2--------------------------------------|  
A|----4--4------4--6--7-----2--------------------------------------|
E|----2--2------2--4--5-----0--------------------------------------| 
   From the verse to the chorus play this
e|-----------------------------------------------------------------|
B|-----------------------------------------------------------------|
G|----7---------4--------------------------------------------------|
D|----7---------4--------------------------------------------------|
A|----5---------2--------------------------------------------------|
E|-----------------------------------------------------------------|
 then this is the chorus
e|-------2------------------0--------------------------------------|
B|-------2------------------0--------------------------------------|
G|-------2------------------1--------------------------------------|
D|----4--4------4--6--7-----2--------------------------------------|  
A|----4--4------4--6--7-----2--------------------------------------|
E|----2--2------2--4--5-----0--------------------------------------| 
   the bridge is like this
e|-----------------------------------------------------------------|
B|-----------------------------------------------------------------|
G|-- 9---------7----9----------------------------------------------|
D|---9---7-----7----9----------------------------------------------|
A|---7---7-----5----7----------------------------------------------|
E|-------5---------------------------------------------------------|

Im working on the solo

the very end is like this on the highest string

e|----------13h14-13h14-13h14------------------------------------|
until the song is over

listen to the song to get the rythems


| /  slide up
| \  slide down
| h  hammer-on
| p  pull-off 
| ~  vibrato
just tidying this up a bit

=============================================================================
Comments