Tom Petty - Learning To Fly Chords & Tabs

 

Learning To Fly Chords & Tabs

Tom Petty Chords & Tabs

Version: 2 Type: Tab 0 ratings
1 star 2 stars 3 stars 4 stars 5 stars
comments

Learning To Fly Tab

LEARNING TO FLY
As recorded by Tom Petty


  Q=120
 4/4
  Gtr I
|-------------------|-------------------|
|-----1-------1-----|-1---1-0-(0)-1-0-1-|
|-2-0---0-(0)---0-0-|---0---------------|
|-------------------|-------------------|
|-------------------|-------------------|
|-------------------|-------------------|
|
| Gtr II
|-1-1-1-0-(0)-0-0-0-|-0-0-0-3-(3)-3-3-3-|
|-1-1-1-1-(1)-1-1-1-|-1-1-1-0-(0)-0-0-0-|
|-2-2-2-0-(0)-0-0-0-|-2-2-2-0-(0)-0-0-0-|
|-3-3-3-2-(2)-2-2-2-|-2-2-2-0-(0)-0-0-0-|
|-3-3-3-3-(3)-3-3-3-|-0-0-0-------------|
|-------------------|-------3-(3)-3-3-3-|


|-------------------|--------------------|
|-----1-------1-----|-1---1-0-(0)-1-0-1--|
|-2-0---0-(0)---0-0-|---0----------------|
|-------------------|--------------------|
|-------------------|--------------------|
|-------------------|--------------------|
|
|-1-1-1-0-(0)-0-0-0-|-0-0-0-3-(3)-3-3-3--|
|-1-1-1-1-(1)-1-1-1-|-1-1-1-0-(0)-0-0-0--|
|-2-2-2-0-(0)-0-0-0-|-2-2-2-0-(0)-0-0-0--|
|-3-3-3-2-(2)-2-2-2-|-2-2-2-0-(0)-0-0-0--|
|-3-3-3-3-(3)-3-3-3-|-0-0-0--------------|
|-------------------|-------3-(3)-3-3-3--|


  Gtr III
|-------------------|-------------------|
|-------------------|-------------------|
|-------------------|-------------------|
|-------5--5--5-5-5-|-------------------|
|-3-3-3-3--3--3-3-3-|-7-7-7-5--5--5-5-5-|
|-1-1-1-------------|-5-5-5-3--3--3-3-3-|
|
| Gtr I
|-------------------|-------------------|
|-----1-------1-----|-1---1-0-(0)-1-0-1-|
|-2-0---0-(0)---0-0-|---0---------------|
|-------------------|-------------------|
|-------------------|-------------------|
|-------------------|-------------------|
|
| Gtr II
|-1-1-1-0-(0)-0-0-0-|-0-0-0-3-(3)-3-3-3-|
|-1-1-1-1-(1)-1-1-1-|-1-1-1-0-(0)-0-0-0-|
|-2-2-2-0-(0)-0-0-0-|-2-2-2-0-(0)-0-0-0-|
|-3-3-3-2-(2)-2-2-2-|-2-2-2-0-(0)-0-0-0-|
|-3-3-3-3-(3)-3-3-3-|-0-0-0-------------|
|-------------------|-------3-(3)-3-3-3-|


|-------------------|-------------------|
|-------------------|-------------------|
|-------------------|-------------------|
|-------5--5--5-5-5-|-------------------|
|-3-3-3-3--3--3-3-3-|-7-7-7-5--5--5-5-5-|
|-1-1-1-------------|-5-5-5-3--3--3-3-3-|
|
|-------------------|-------------------|
|-----1-------1-----|-1---1-0-(0)-1-0-1-|
|-2-0---0-(0)---0-0-|---0---------------|
|-------------------|-------------------|
|-------------------|-------------------|
|-------------------|-------------------|
|
|-1-1-1-0-(0)-0-0-0-|-0-0-0-3-(3)-3-3-3-|
|-1-1-1-1-(1)-1-1-1-|-1-1-1-0-(0)-0-0-0-|
|-2-2-2-0-(0)-0-0-0-|-2-2-2-0-(0)-0-0-0-|
|-3-3-3-2-(2)-2-2-2-|-2-2-2-0-(0)-0-0-0-|
|-3-3-3-3-(3)-3-3-3-|-0-0-0-------------|
|-------------------|-------3-(3)-3-3-3-|


|-------------------|-------------------|
|-------------------|-------------------|
|-------------------|-------------------|
|-------5--5--5-5-5-|-------------------|
|-3-3-3-3--3--3-3-3-|-7-7-7-5--5--5-5-5-|
|-1-1-1-------------|-5-5-5-3--3--3-3-3-|
|
|-------------------|-------------------|
|-----1-------1-----|-1---1-0-(0)-1-0-1-|
|-2-0---0-(0)---0-0-|---0---------------|
|-------------------|-------------------|
|-------------------|-------------------|
|-------------------|-------------------|
|
|-1-1-1-0-(0)-0-0-0-|-0-0-0-3-(3)-3-3-3-|
|-1-1-1-1-(1)-1-1-1-|-1-1-1-0-(0)-0-0-0-|
|-2-2-2-0-(0)-0-0-0-|-2-2-2-0-(0)-0-0-0-|
|-3-3-3-2-(2)-2-2-2-|-2-2-2-0-(0)-0-0-0-|
|-3-3-3-3-(3)-3-3-3-|-0-0-0-------------|
|-------------------|-------3-(3)-3-3-3-|


|-------------------|-------------------|
|-------------------|-------------------|
|-------------------|-------------------|
|-------5--5--5-5-5-|-------------------|
|-3-3-3-3--3--3-3-3-|-7-7-7-5--5--5-5-5-|
|-1-1-1-------------|-5-5-5-3--3--3-3-3-|
|
|-------------------|-------------------|
|-----1-------1-----|-1---1-0-(0)-1-0-1-|
|-2-0---0-(0)---0-0-|---0---------------|
|-------------------|-------------------|
|-------------------|-------------------|
|-------------------|-------------------|
|
|-1-1-1-0-(0)-0-0-0-|-0-0-0-3-(3)-3-3-3-|
|-1-1-1-1-(1)-1-1-1-|-1-1-1-0-(0)-0-0-0-|
|-2-2-2-0-(0)-0-0-0-|-2-2-2-0-(0)-0-0-0-|
|-3-3-3-2-(2)-2-2-2-|-2-2-2-0-(0)-0-0-0-|
|-3-3-3-3-(3)-3-3-3-|-0-0-0-------------|
|-------------------|-------3-(3)-3-3-3-|


|-------------------|-------------------|
|-------------------|-------------------|
|-------------------|-------------------|
|-------5--5--5-5-5-|-------------------|
|-3-3-3-3--3--3-3-3-|-7-7-7-5--5--5-5-5-|
|-1-1-1-------------|-5-5-5-3--3--3-3-3-|
|
|-------------------|-------------------|
|-----1-------1-----|-1---1-0-(0)-1-0-1-|
|-2-0---0-(0)---0-0-|---0---------------|
|-------------------|-------------------|
|-------------------|-------------------|
|-------------------|-------------------|
|
|-1-1-1-0-(0)-0-0-0-|-0-0-0-3-(3)-3-3-3-|
|-1-1-1-1-(1)-1-1-1-|-1-1-1-0-(0)-0-0-0-|
|-2-2-2-0-(0)-0-0-0-|-2-2-2-0-(0)-0-0-0-|
|-3-3-3-2-(2)-2-2-2-|-2-2-2-0-(0)-0-0-0-|
|-3-3-3-3-(3)-3-3-3-|-0-0-0-------------|
|-------------------|-------3-(3)-3-3-3-|


|-------------------|-------------------|
|-------------------|-------------------|
|-------------------|-------------------|
|-------5--5--5-5-5-|-------------------|
|-3-3-3-3--3--3-3-3-|-7-7-7-5--5--5-5-5-|
|-1-1-1-------------|-5-5-5-3--3--3-3-3-|
|
|-------------------|-------------------|
|-----1-------1-----|-1---1-0-(0)-1-0-1-|
|-2-0---0-(0)---0-0-|---0---------------|
|-------------------|-------------------|
|-------------------|-------------------|
|-------------------|-------------------|
|
|-1-1-1-0-(0)-0-0-0-|-0-0-0-3-(3)-3-3-3-|
|-1-1-1-1-(1)-1-1-1-|-1-1-1-0-(0)-0-0-0-|
|-2-2-2-0-(0)-0-0-0-|-2-2-2-0-(0)-0-0-0-|
|-3-3-3-2-(2)-2-2-2-|-2-2-2-0-(0)-0-0-0-|
|-3-3-3-3-(3)-3-3-3-|-0-0-0-------------|
|-------------------|-------3-(3)-3-3-3-|


|-------------------|-------------------|
|-------------------|-------------------|
|-------------------|-------------------|
|-------5--5--5-5-5-|-------------------|
|-3-3-3-3--3--3-3-3-|-7-7-7-5--5--5-5-5-|
|-1-1-1-------------|-5-5-5-3--3--3-3-3-|
|
|-------------------|-------------------|
|-----1-------1-----|-1---1-0-(0)-1-0-1-|
|-2-0---0-(0)---0-0-|---0---------------|
|-------------------|-------------------|
|-------------------|-------------------|
|-------------------|-------------------|
|
|-1-1-1-0-(0)-0-0-0-|-0-0-0-3-(3)-3-3-3-|
|-1-1-1-1-(1)-1-1-1-|-1-1-1-0-(0)-0-0-0-|
|-2-2-2-0-(0)-0-0-0-|-2-2-2-0-(0)-0-0-0-|
|-3-3-3-2-(2)-2-2-2-|-2-2-2-0-(0)-0-0-0-|
|-3-3-3-3-(3)-3-3-3-|-0-0-0-------------|
|-------------------|-------3-(3)-3-3-3-|


|-------------------|-------------------|
|-------------------|-------------------|
|-------------------|-------------------|
|-------5--5--5-5-5-|-------------------|
|-3-3-3-3--3--3-3-3-|-7-7-7-5--5--5-5-5-|
|-1-1-1-------------|-5-5-5-3--3--3-3-3-|
|
|-------------------|-------------------|
|-----1-------1-----|-1---1-0-(0)-1-0-1-|
|-2-0---0-(0)---0-0-|---0---------------|
|-------------------|-------------------|
|-------------------|-------------------|
|-------------------|-------------------|
|
|-1-1-1-0-(0)-0-0-0-|-0-0-0-3-(3)-3-3-3-|
|-1-1-1-1-(1)-1-1-1-|-1-1-1-0-(0)-0-0-0-|
|-2-2-2-0-(0)-0-0-0-|-2-2-2-0-(0)-0-0-0-|
|-3-3-3-2-(2)-2-2-2-|-2-2-2-0-(0)-0-0-0-|
|-3-3-3-3-(3)-3-3-3-|-0-0-0-------------|
|-------------------|-------3-(3)-3-3-3-|


|-------------------|-------------------|
|-------------------|-------------------|
|-------------------|-------------------|
|-------5--5--5-5-5-|-------------------|
|-3-3-3-3--3--3-3-3-|-7-7-7-5--5--5-5-5-|
|-1-1-1-------------|-5-5-5-3--3--3-3-3-|
|
|-------------------|-------------------|
|-----1-------1-----|-1---1-0-(0)-1-0-1-|
|-2-0---0-(0)---0-0-|---0---------------|
|-------------------|-------------------|
|-------------------|-------------------|
|-------------------|-------------------|
|
|-1-1-1-0-(0)-0-0-0-|-0-0-0-3-(3)-3-3-3-|
|-1-1-1-1-(1)-1-1-1-|-1-1-1-0-(0)-0-0-0-|
|-2-2-2-0-(0)-0-0-0-|-2-2-2-0-(0)-0-0-0-|
|-3-3-3-2-(2)-2-2-2-|-2-2-2-0-(0)-0-0-0-|
|-3-3-3-3-(3)-3-3-3-|-0-0-0-------------|
|-------------------|-------3-(3)-3-3-3-|


|-------------------|-------------------|
|-------------------|-------------------|
|-------------------|-------------------|
|-------5--5--5-5-5-|-------------------|
|-3-3-3-3--3--3-3-3-|-7-7-7-5--5--5-5-5-|
|-1-1-1-------------|-5-5-5-3--3--3-3-3-|
|
|-------------------|-------------------|
|-----1-------1-----|-1---1-0-(0)-1-0-1-|
|-2-0---0-(0)---0-0-|---0---------------|
|-------------------|-------------------|
|-------------------|-------------------|
|-------------------|-------------------|
|
|-1-1-1-0-(0)-0-0-0-|-0-0-0-3-(3)-3-3-3-|
|-1-1-1-1-(1)-1-1-1-|-1-1-1-0-(0)-0-0-0-|
|-2-2-2-0-(0)-0-0-0-|-2-2-2-0-(0)-0-0-0-|
|-3-3-3-2-(2)-2-2-2-|-2-2-2-0-(0)-0-0-0-|
|-3-3-3-3-(3)-3-3-3-|-0-0-0-------------|
|-------------------|-------3-(3)-3-3-3-|


|-------------------|-------------------|
|-------------------|-------------------|
|-------------------|-------------------|
|-------5--5--5-5-5-|-------------------|
|-3-3-3-3--3--3-3-3-|-7-7-7-5--5--5-5-5-|
|-1-1-1-------------|-5-5-5-3--3--3-3-3-|
|
|-------------------|-------------------|
|-----1-------1-----|-1---1-0-(0)-1-0-1-|
|-2-0---0-(0)---0-0-|---0---------------|
|-------------------|-------------------|
|-------------------|-------------------|
|-------------------|-------------------|
|
|-1-1-1-0-(0)-0-0-0-|-0-0-0-3-(3)-3-3-3-|
|-1-1-1-1-(1)-1-1-1-|-1-1-1-0-(0)-0-0-0-|
|-2-2-2-0-(0)-0-0-0-|-2-2-2-0-(0)-0-0-0-|
|-3-3-3-2-(2)-2-2-2-|-2-2-2-0-(0)-0-0-0-|
|-3-3-3-3-(3)-3-3-3-|-0-0-0-------------|
|-------------------|-------3-(3)-3-3-3-|


|-------------------|-------------------|
|-------------------|-------------------|
|-------------------|-------------------|
|-------5--5--5-5-5-|-------------------|
|-3-3-3-3--3--3-3-3-|-7-7-7-5--5--5-5-5-|
|-1-1-1-------------|-5-5-5-3--3--3-3-3-|
|
|-------------------|-------------------|
|-----1-------1-----|-1---1-0-(0)-1-0-1-|
|-2-0---0-(0)---0-0-|---0---------------|
|-------------------|-------------------|
|-------------------|-------------------|
|-------------------|-------------------|
|
|-1-1-1-0-(0)-0-0-0-|-0-0-0-3-(3)-3-3-3-|
|-1-1-1-1-(1)-1-1-1-|-1-1-1-0-(0)-0-0-0-|
|-2-2-2-0-(0)-0-0-0-|-2-2-2-0-(0)-0-0-0-|
|-3-3-3-2-(2)-2-2-2-|-2-2-2-0-(0)-0-0-0-|
|-3-3-3-3-(3)-3-3-3-|-0-0-0-------------|
|-------------------|-------3-(3)-3-3-3-|


|-------------------|-------------------|
|-------------------|-------------------|
|-------------------|-------------------|
|-------5--5--5-5-5-|-------------------|
|-3-3-3-3--3--3-3-3-|-7-7-7-5--5--5-5-5-|
|-1-1-1-------------|-5-5-5-3--3--3-3-3-|
|
|-------------------|-------------------|
|-----1-------1-----|-1---1-0-(0)-1-0-1-|
|-2-0---0-(0)---0-0-|---0---------------|
|-------------------|-------------------|
|-------------------|-------------------|
|-------------------|-------------------|
|
|-1-1-1-0-(0)-0-0-0-|-0-0-0-3-(3)-3-3-3-|
|-1-1-1-1-(1)-1-1-1-|-1-1-1-0-(0)-0-0-0-|
|-2-2-2-0-(0)-0-0-0-|-2-2-2-0-(0)-0-0-0-|
|-3-3-3-2-(2)-2-2-2-|-2-2-2-0-(0)-0-0-0-|
|-3-3-3-3-(3)-3-3-3-|-0-0-0-------------|
|-------------------|-------3-(3)-3-3-3-|


|-------------------|-------------------|
|-------------------|-------------------|
|-------------------|-------------------|
|-------5--5--5-5-5-|-------------------|
|-3-3-3-3--3--3-3-3-|-7-7-7-5--5--5-5-5-|
|-1-1-1-------------|-5-5-5-3--3--3-3-3-|
|
|-------------------|-------------------|
|-----1-------1-----|-1---1-0-(0)-1-0-1-|
|-2-0---0-(0)---0-0-|---0---------------|
|-------------------|-------------------|
|-------------------|-------------------|
|-------------------|-------------------|
|
|-1-1-1-0-(0)-0-0-0-|-0-0-0-3-(3)-3-3-3-|
|-1-1-1-1-(1)-1-1-1-|-1-1-1-0-(0)-0-0-0-|
|-2-2-2-0-(0)-0-0-0-|-2-2-2-0-(0)-0-0-0-|
|-3-3-3-2-(2)-2-2-2-|-2-2-2-0-(0)-0-0-0-|
|-3-3-3-3-(3)-3-3-3-|-0-0-0-------------|
|-------------------|-------3-(3)-3-3-3-|


|-------------------|-------------------|
|-------------------|-------------------|
|-------------------|-------------------|
|-------5--5--5-5-5-|-------------------|
|-3-3-3-3--3--3-3-3-|-7-7-7-5--5--5-5-5-|
|-1-1-1-------------|-5-5-5-3--3--3-3-3-|
|
|-------------------|-------------------|
|-----1-------1-----|-1---1-0-(0)-1-0-1-|
|-2-0---0-(0)---0-0-|---0---------------|
|-------------------|-------------------|
|-------------------|-------------------|
|-------------------|-------------------|
|
|-1-1-1-0-(0)-0-0-0-|-0-0-0-3-(3)-3-3-3-|
|-1-1-1-1-(1)-1-1-1-|-1-1-1-0-(0)-0-0-0-|
|-2-2-2-0-(0)-0-0-0-|-2-2-2-0-(0)-0-0-0-|
|-3-3-3-2-(2)-2-2-2-|-2-2-2-0-(0)-0-0-0-|
|-3-3-3-3-(3)-3-3-3-|-0-0-0-------------|
|-------------------|-------3-(3)-3-3-3-|


|-------------------|-------------------|
|-------------------|-------------------|
|-------------------|-------------------|
|-------5--5--5-5-5-|-------------------|
|-3-3-3-3--3--3-3-3-|-7-7-7-5--5--5-5-5-|
|-1-1-1-------------|-5-5-5-3--3--3-3-3-|
|
|-------------------|-------------------|
|-----1-------1-----|-1---1-0-(0)-1-0-1-|
|-2-0---0-(0)---0-0-|---0---------------|
|-------------------|-------------------|
|-------------------|-------------------|
|-------------------|-------------------|
|
|-1-1-1-0-(0)-0-0-0-|-0-0-0-3-(3)-3-3-3-|
|-1-1-1-1-(1)-1-1-1-|-1-1-1-0-(0)-0-0-0-|
|-2-2-2-0-(0)-0-0-0-|-2-2-2-0-(0)-0-0-0-|
|-3-3-3-2-(2)-2-2-2-|-2-2-2-0-(0)-0-0-0-|
|-3-3-3-3-(3)-3-3-3-|-0-0-0-------------|
|-------------------|-------3-(3)-3-3-3-|


|-------------------|-------------------|
|-------------------|-------------------|
|-------------------|-------------------|
|-------5--5--5-5-5-|-------------------|
|-3-3-3-3--3--3-3-3-|-7-7-7-5--5--5-5-5-|
|-1-1-1-------------|-5-5-5-3--3--3-3-3-|
|
|-------------------|-------------------|
|-----1-------1-----|-1---1-0-(0)-1-0-1-|
|-2-0---0-(0)---0-0-|---0---------------|
|-------------------|-------------------|
|-------------------|-------------------|
|-------------------|-------------------|
|
|-1-1-1-0-(0)-0-0-0-|-0-0-0-3-(3)-3-3-3-|
|-1-1-1-1-(1)-1-1-1-|-1-1-1-0-(0)-0-0-0-|
|-2-2-2-0-(0)-0-0-0-|-2-2-2-0-(0)-0-0-0-|
|-3-3-3-2-(2)-2-2-2-|-2-2-2-0-(0)-0-0-0-|
|-3-3-3-3-(3)-3-3-3-|-0-0-0-------------|
|-------------------|-------3-(3)-3-3-3-|


|-------------------|-------------------|
|-------------------|-------------------|
|-------------------|-------------------|
|-------5--5--5-5-5-|-------------------|
|-3-3-3-3--3--3-3-3-|-7-7-7-5--5--5-5-5-|
|-1-1-1-------------|-5-5-5-3--3--3-3-3-|
|
|-------------------|-------------------|
|-----1-------1-----|-1---1-0-(0)-1-0-1-|
|-2-0---0-(0)---0-0-|---0---------------|
|-------------------|-------------------|
|-------------------|-------------------|
|-------------------|-------------------|
|
|-1-1-1-0-(0)-0-0-0-|-0-0-0-3-(3)-3-3-3-|
|-1-1-1-1-(1)-1-1-1-|-1-1-1-0-(0)-0-0-0-|
|-2-2-2-0-(0)-0-0-0-|-2-2-2-0-(0)-0-0-0-|
|-3-3-3-2-(2)-2-2-2-|-2-2-2-0-(0)-0-0-0-|
|-3-3-3-3-(3)-3-3-3-|-0-0-0-------------|
|-------------------|-------3-(3)-3-3-3-|


|-------------------|-------------------|
|-------------------|-------------------|
|-------------------|-------------------|
|-------5--5--5-5-5-|-------------------|
|-3-3-3-3--3--3-3-3-|-7-7-7-5--5--5-5-5-|
|-1-1-1-------------|-5-5-5-3--3--3-3-3-|
|
|-------------------|-------------------|
|-----1-------1-----|-1---1-0-(0)-1-0-1-|
|-2-0---0-(0)---0-0-|---0---------------|
|-------------------|-------------------|
|-------------------|-------------------|
|-------------------|-------------------|
|
|-1-1-1-0-(0)-0-0-0-|-0-0-0-3-(3)-3-3-3-|
|-1-1-1-1-(1)-1-1-1-|-1-1-1-0-(0)-0-0-0-|
|-2-2-2-0-(0)-0-0-0-|-2-2-2-0-(0)-0-0-0-|
|-3-3-3-2-(2)-2-2-2-|-2-2-2-0-(0)-0-0-0-|
|-3-3-3-3-(3)-3-3-3-|-0-0-0-------------|
|-------------------|-------3-(3)-3-3-3-|


|-------------------|-------------------|
|-------------------|-------------------|
|-------------------|-------------------|
|-------5--5--5-5-5-|-------------------|
|-3-3-3-3--3--3-3-3-|-7-7-7-5--5--5-5-5-|
|-1-1-1-------------|-5-5-5-3--3--3-3-3-|
|
|-------------------|-------------------|
|-----1-------1-----|-1---1-0-(0)-1-0-1-|
|-2-0---0-(0)---0-0-|---0---------------|
|-------------------|-------------------|
|-------------------|-------------------|
|-------------------|-------------------|
|
|-1-1-1-0-(0)-0-0-0-|-0-0-0-3-(3)-3-3-3-|
|-1-1-1-1-(1)-1-1-1-|-1-1-1-0-(0)-0-0-0-|
|-2-2-2-0-(0)-0-0-0-|-2-2-2-0-(0)-0-0-0-|
|-3-3-3-2-(2)-2-2-2-|-2-2-2-0-(0)-0-0-0-|
|-3-3-3-3-(3)-3-3-3-|-0-0-0-------------|
|-------------------|-------3-(3)-3-3-3-|


|-------------------|-------------------|
|-------------------|-------------------|
|-------------------|-------------------|
|-------5--5--5-5-5-|-------------------|
|-3-3-3-3--3--3-3-3-|-7-7-7-5--5--5-5-5-|
|-1-1-1-------------|-5-5-5-3--3--3-3-3-|
|
|-------------------|-------------------|
|-----1-------1-----|-1---1-0-(0)-1-0-1-|
|-2-0---0-(0)---0-0-|---0---------------|
|-------------------|-------------------|
|-------------------|-------------------|
|-------------------|-------------------|
|
|-1-1-1-0-(0)-0-0-0-|-0-0-0-3-(3)-3-3-3-|
|-1-1-1-1-(1)-1-1-1-|-1-1-1-0-(0)-0-0-0-|
|-2-2-2-0-(0)-0-0-0-|-2-2-2-0-(0)-0-0-0-|
|-3-3-3-2-(2)-2-2-2-|-2-2-2-0-(0)-0-0-0-|
|-3-3-3-3-(3)-3-3-3-|-0-0-0-------------|
|-------------------|-------3-(3)-3-3-3-|


|-------------------|-------------------|
|-------------------|-------------------|
|-------------------|-------------------|
|-------5--5--5-5-5-|-------------------|
|-3-3-3-3--3--3-3-3-|-7-7-7-5--5--5-5-5-|
|-1-1-1-------------|-5-5-5-3--3--3-3-3-|
|
|-------------------|-------------------|
|-----1-------1-----|-1---1-0-(0)-1-0-1-|
|-2-0---0-(0)---0-0-|---0---------------|
|-------------------|-------------------|
|-------------------|-------------------|
|-------------------|-------------------|
|
|-1-1-1-0-(0)-0-0-0-|-0-0-0-3-(3)-3-3-3-|
|-1-1-1-1-(1)-1-1-1-|-1-1-1-0-(0)-0-0-0-|
|-2-2-2-0-(0)-0-0-0-|-2-2-2-0-(0)-0-0-0-|
|-3-3-3-2-(2)-2-2-2-|-2-2-2-0-(0)-0-0-0-|
|-3-3-3-3-(3)-3-3-3-|-0-0-0-------------|
|-------------------|-------3-(3)-3-3-3-|


|-------------------|-------------------|
|-------------------|-------------------|
|-------------------|-------------------|
|-------5--5--5-5-5-|-------------------|
|-3-3-3-3--3--3-3-3-|-7-7-7-5--5--5-5-5-|
|-1-1-1-------------|-5-5-5-3--3--3-3-3-|
|
|-------------------|-------------------|
|-----1-------1-----|-1---1-0-(0)-1-0-1-|
|-2-0---0-(0)---0-0-|---0---------------|
|-------------------|-------------------|
|-------------------|-------------------|
|-------------------|-------------------|
|
|-1-1-1-0-(0)-0-0-0-|-0-0-0-3-(3)-3-3-3-|
|-1-1-1-1-(1)-1-1-1-|-1-1-1-0-(0)-0-0-0-|
|-2-2-2-0-(0)-0-0-0-|-2-2-2-0-(0)-0-0-0-|
|-3-3-3-2-(2)-2-2-2-|-2-2-2-0-(0)-0-0-0-|
|-3-3-3-3-(3)-3-3-3-|-0-0-0-------------|
|-------------------|-------3-(3)-3-3-3-|


|-------------------|-------------------|
|-------------------|-------------------|
|-------------------|-------------------|
|-------5--5--5-5-5-|-------------------|
|-3-3-3-3--3--3-3-3-|-7-7-7-5--5--5-5-5-|
|-1-1-1-------------|-5-5-5-3--3--3-3-3-|
|
|-------------------|-------------------|
|-----1-------1-----|-1---1-0-(0)-1-0-1-|
|-2-0---0-(0)---0-0-|---0---------------|
|-------------------|-------------------|
|-------------------|-------------------|
|-------------------|-------------------|
|
|-1-1-1-0-(0)-0-0-0-|-0-0-0-3-(3)-3-3-3-|
|-1-1-1-1-(1)-1-1-1-|-1-1-1-0-(0)-0-0-0-|
|-2-2-2-0-(0)-0-0-0-|-2-2-2-0-(0)-0-0-0-|
|-3-3-3-2-(2)-2-2-2-|-2-2-2-0-(0)-0-0-0-|
|-3-3-3-3-(3)-3-3-3-|-0-0-0-------------|
|-------------------|-------3-(3)-3-3-3-|


|-------------------|-------------------|
|-------------------|-------------------|
|-------------------|-------------------|
|-------5--5--5-5-5-|-------------------|
|-3-3-3-3--3--3-3-3-|-7-7-7-5--5--5-5-5-|
|-1-1-1-------------|-5-5-5-3--3--3-3-3-|
|
|-------------------|-------------------|
|-----1-------1-----|-1---1-0-(0)-1-0-1-|
|-2-0---0-(0)---0-0-|---0---------------|
|-------------------|-------------------|
|-------------------|-------------------|
|-------------------|-------------------|
|
|-1-1-1-0-(0)-0-0-0-|-0-0-0-3-(3)-3-3-3-|
|-1-1-1-1-(1)-1-1-1-|-1-1-1-0-(0)-0-0-0-|
|-2-2-2-0-(0)-0-0-0-|-2-2-2-0-(0)-0-0-0-|
|-3-3-3-2-(2)-2-2-2-|-2-2-2-0-(0)-0-0-0-|
|-3-3-3-3-(3)-3-3-3-|-0-0-0-------------|
|-------------------|-------3-(3)-3-3-3-|

[ Tab from: http://www.guitartabs.cc/tabs/t/tom_petty/learning_to_fly_tab_ver_2.html ]
|-------------------|-------------------|
|-------------------|-------------------|
|-------------------|-------------------|
|-------5--5--5-5-5-|-------------------|
|-3-3-3-3--3--3-3-3-|-7-7-7-5--5--5-5-5-|
|-1-1-1-------------|-5-5-5-3--3--3-3-3-|
|
|-------------------|-------------------|
|-----1-------1-----|-1---1-0-(0)-1-0-1-|
|-2-0---0-(0)---0-0-|---0---------------|
|-------------------|-------------------|
|-------------------|-------------------|
|-------------------|-------------------|
|
|-1-1-1-0-(0)-0-0-0-|-0-0-0-3-(3)-3-3-3-|
|-1-1-1-1-(1)-1-1-1-|-1-1-1-0-(0)-0-0-0-|
|-2-2-2-0-(0)-0-0-0-|-2-2-2-0-(0)-0-0-0-|
|-3-3-3-2-(2)-2-2-2-|-2-2-2-0-(0)-0-0-0-|
|-3-3-3-3-(3)-3-3-3-|-0-0-0-------------|
|-------------------|-------3-(3)-3-3-3-|


  Gtr I
|-------------------|-------------------|
|-----1-------1-----|-1---1-0-(0)-1-0-1-|
|-2-0---0-(0)---0-0-|---0---------------|
|-------------------|-------------------|
|-------------------|-------------------|
|-------------------|-------------------|
|
| Gtr II
|-1-1-1-0-(0)-0-0-0-|-0-0-0-3-(3)-3-3-3-|
|-1-1-1-1-(1)-1-1-1-|-1-1-1-0-(0)-0-0-0-|
|-2-2-2-0-(0)-0-0-0-|-2-2-2-0-(0)-0-0-0-|
|-3-3-3-2-(2)-2-2-2-|-2-2-2-0-(0)-0-0-0-|
|-3-3-3-3-(3)-3-3-3-|-0-0-0-------------|
|-------------------|-------3-(3)-3-3-3-|


|-------------------|-------------------|
|-----1-------1-----|-1---1-0-(0)-1-0-1-|
|-2-0---0-(0)---0-0-|---0---------------|
|-------------------|-------------------|
|-------------------|-------------------|
|-------------------|-------------------|
|
|-1-1-1-0-(0)-0-0-0-|-0-0-0-3-(3)-3-3-3-|
|-1-1-1-1-(1)-1-1-1-|-1-1-1-0-(0)-0-0-0-|
|-2-2-2-0-(0)-0-0-0-|-2-2-2-0-(0)-0-0-0-|
|-3-3-3-2-(2)-2-2-2-|-2-2-2-0-(0)-0-0-0-|
|-3-3-3-3-(3)-3-3-3-|-0-0-0-------------|
|-------------------|-------3-(3)-3-3-3-|


  Gtr III
|-------------------|-------------------|
|-------------------|-------------------|
|-------------------|-------------------|
|-------5--5--5-5-5-|-------------------|
|-3-3-3-3--3--3-3-3-|-7-7-7-5--5--5-5-5-|
|-1-1-1-------------|-5-5-5-3--3--3-3-3-|
|
| Gtr I
|-------------------|-------------------|
|-----1-------1-----|-1---1-0-(0)-1-0-1-|
|-2-0---0-(0)---0-0-|---0---------------|
|-------------------|-------------------|
|-------------------|-------------------|
|-------------------|-------------------|
|
| Gtr II
|-1-1-1-0-(0)-0-0-0-|-0-0-0-3-(3)-3-3-3-|
|-1-1-1-1-(1)-1-1-1-|-1-1-1-0-(0)-0-0-0-|
|-2-2-2-0-(0)-0-0-0-|-2-2-2-0-(0)-0-0-0-|
|-3-3-3-2-(2)-2-2-2-|-2-2-2-0-(0)-0-0-0-|
|-3-3-3-3-(3)-3-3-3-|-0-0-0-------------|
|-------------------|-------3-(3)-3-3-3-|


|-------------------|-------------------|
|-------------------|-------------------|
|-------------------|-------------------|
|-------5--5--5-5-5-|-------------------|
|-3-3-3-3--3--3-3-3-|-7-7-7-5--5--5-5-5-|
|-1-1-1-------------|-5-5-5-3--3--3-3-3-|
|
|-------------------|-------------------|
|-----1-------1-----|-1---1-0-(0)-1-0-1-|
|-2-0---0-(0)---0-0-|---0---------------|
|-------------------|-------------------|
|-------------------|-------------------|
|-------------------|-------------------|
|
|-1-1-1-0-(0)-0-0-0-|-0-0-0-3-(3)-3-3-3-|
|-1-1-1-1-(1)-1-1-1-|-1-1-1-0-(0)-0-0-0-|
|-2-2-2-0-(0)-0-0-0-|-2-2-2-0-(0)-0-0-0-|
|-3-3-3-2-(2)-2-2-2-|-2-2-2-0-(0)-0-0-0-|
|-3-3-3-3-(3)-3-3-3-|-0-0-0-------------|
|-------------------|-------3-(3)-3-3-3-|


|-------------------|-------------------|
|-------------------|-------------------|
|-------------------|-------------------|
|-------5--5--5-5-5-|-------------------|
|-3-3-3-3--3--3-3-3-|-7-7-7-5--5--5-5-5-|
|-1-1-1-------------|-5-5-5-3--3--3-3-3-|
|
|-------------------|-------------------|
|-----1-------1-----|-1---1-0-(0)-1-0-1-|
|-2-0---0-(0)---0-0-|---0---------------|
|-------------------|-------------------|
|-------------------|-------------------|
|-------------------|-------------------|
|
|-1-1-1-0-(0)-0-0-0-|-0-0-0-3-(3)-3-3-3-|
|-1-1-1-1-(1)-1-1-1-|-1-1-1-0-(0)-0-0-0-|
|-2-2-2-0-(0)-0-0-0-|-2-2-2-0-(0)-0-0-0-|
|-3-3-3-2-(2)-2-2-2-|-2-2-2-0-(0)-0-0-0-|
|-3-3-3-3-(3)-3-3-3-|-0-0-0-------------|
|-------------------|-------3-(3)-3-3-3-|


|-------------------|-------------------|
|-------------------|-------------------|
|-------------------|-------------------|
|-------5--5--5-5-5-|-------------------|
|-3-3-3-3--3--3-3-3-|-7-7-7-5--5--5-5-5-|
|-1-1-1-------------|-5-5-5-3--3--3-3-3-|
|
|-------------------|-------------------|
|-----1-------1-----|-1---1-0-(0)-1-0-1-|
|-2-0---0-(0)---0-0-|---0---------------|
|-------------------|-------------------|
|-------------------|-------------------|
|-------------------|-------------------|
|
|-1-1-1-0-(0)-0-0-0-|-0-0-0-3-(3)-3-3-3-|
|-1-1-1-1-(1)-1-1-1-|-1-1-1-0-(0)-0-0-0-|
|-2-2-2-0-(0)-0-0-0-|-2-2-2-0-(0)-0-0-0-|
|-3-3-3-2-(2)-2-2-2-|-2-2-2-0-(0)-0-0-0-|
|-3-3-3-3-(3)-3-3-3-|-0-0-0-------------|
|-------------------|-------3-(3)-3-3-3-|


|-------------------|-------------------|
|-------------------|-------------------|
|-------------------|-------------------|
|-------5--5--5-5-5-|-------------------|
|-3-3-3-3--3--3-3-3-|-7-7-7-5--5--5-5-5-|
|-1-1-1-------------|-5-5-5-3--3--3-3-3-|
|
|-------------------|-------------------|
|-----1-------1-----|-1---1-0-(0)-1-0-1-|
|-2-0---0-(0)---0-0-|---0---------------|
|-------------------|-------------------|
|-------------------|-------------------|
|-------------------|-------------------|
|
|-1-1-1-0-(0)-0-0-0-|-0-0-0-3-(3)-3-3-3-|
|-1-1-1-1-(1)-1-1-1-|-1-1-1-0-(0)-0-0-0-|
|-2-2-2-0-(0)-0-0-0-|-2-2-2-0-(0)-0-0-0-|
|-3-3-3-2-(2)-2-2-2-|-2-2-2-0-(0)-0-0-0-|
|-3-3-3-3-(3)-3-3-3-|-0-0-0-------------|
|-------------------|-------3-(3)-3-3-3-|


|-------------------|-------------------|
|-------------------|-------------------|
|-------------------|-------------------|
|-------5--5--5-5-5-|-------------------|
|-3-3-3-3--3--3-3-3-|-7-7-7-5--5--5-5-5-|
|-1-1-1-------------|-5-5-5-3--3--3-3-3-|
|
|-------------------|-------------------|
|-----1-------1-----|-1---1-0-(0)-1-0-1-|
|-2-0---0-(0)---0-0-|---0---------------|
|-------------------|-------------------|
|-------------------|-------------------|
|-------------------|-------------------|
|
|-1-1-1-0-(0)-0-0-0-|-0-0-0-3-(3)-3-3-3-|
|-1-1-1-1-(1)-1-1-1-|-1-1-1-0-(0)-0-0-0-|
|-2-2-2-0-(0)-0-0-0-|-2-2-2-0-(0)-0-0-0-|
|-3-3-3-2-(2)-2-2-2-|-2-2-2-0-(0)-0-0-0-|
|-3-3-3-3-(3)-3-3-3-|-0-0-0-------------|
|-------------------|-------3-(3)-3-3-3-|


|-------------------|-------------------|
|-------------------|-------------------|
|-------------------|-------------------|
|-------5--5--5-5-5-|-------------------|
|-3-3-3-3--3--3-3-3-|-7-7-7-5--5--5-5-5-|
|-1-1-1-------------|-5-5-5-3--3--3-3-3-|
|
|-------------------|-------------------|
|-----1-------1-----|-1---1-0-(0)-1-0-1-|
|-2-0---0-(0)---0-0-|---0---------------|
|-------------------|-------------------|
|-------------------|-------------------|
|-------------------|-------------------|
|
|-1-1-1-0-(0)-0-0-0-|-0-0-0-3-(3)-3-3-3-|
|-1-1-1-1-(1)-1-1-1-|-1-1-1-0-(0)-0-0-0-|
|-2-2-2-0-(0)-0-0-0-|-2-2-2-0-(0)-0-0-0-|
|-3-3-3-2-(2)-2-2-2-|-2-2-2-0-(0)-0-0-0-|
|-3-3-3-3-(3)-3-3-3-|-0-0-0-------------|
|-------------------|-------3-(3)-3-3-3-|


|-------------------|-------------------|
|-------------------|-------------------|
|-------------------|-------------------|
|-------5--5--5-5-5-|-------------------|
|-3-3-3-3--3--3-3-3-|-7-7-7-5--5--5-5-5-|
|-1-1-1-------------|-5-5-5-3--3--3-3-3-|
|
|-------------------|-------------------|
|-----1-------1-----|-1---1-0-(0)-1-0-1-|
|-2-0---0-(0)---0-0-|---0---------------|
|-------------------|-------------------|
|-------------------|-------------------|
|-------------------|-------------------|
|
|-1-1-1-0-(0)-0-0-0-|-0-0-0-3-(3)-3-3-3-|
|-1-1-1-1-(1)-1-1-1-|-1-1-1-0-(0)-0-0-0-|
|-2-2-2-0-(0)-0-0-0-|-2-2-2-0-(0)-0-0-0-|
|-3-3-3-2-(2)-2-2-2-|-2-2-2-0-(0)-0-0-0-|
|-3-3-3-3-(3)-3-3-3-|-0-0-0-------------|
|-------------------|-------3-(3)-3-3-3-|


|-------------------|-------------------|
|-------------------|-------------------|
|-------------------|-------------------|
|-------5--5--5-5-5-|-------------------|
|-3-3-3-3--3--3-3-3-|-7-7-7-5--5--5-5-5-|
|-1-1-1-------------|-5-5-5-3--3--3-3-3-|
|
|-------------------|-------------------|
|-----1-------1-----|-1---1-0-(0)-1-0-1-|
|-2-0---0-(0)---0-0-|---0---------------|
|-------------------|-------------------|
|-------------------|-------------------|
|-------------------|-------------------|
|
|-1-1-1-0-(0)-0-0-0-|-0-0-0-3-(3)-3-3-3-|
|-1-1-1-1-(1)-1-1-1-|-1-1-1-0-(0)-0-0-0-|
|-2-2-2-0-(0)-0-0-0-|-2-2-2-0-(0)-0-0-0-|
|-3-3-3-2-(2)-2-2-2-|-2-2-2-0-(0)-0-0-0-|
|-3-3-3-3-(3)-3-3-3-|-0-0-0-------------|
|-------------------|-------3-(3)-3-3-3-|


|-------------------|-------------------|
|-------------------|-------------------|
|-------------------|-------------------|
|-------5--5--5-5-5-|-------------------|
|-3-3-3-3--3--3-3-3-|-7-7-7-5--5--5-5-5-|
|-1-1-1-------------|-5-5-5-3--3--3-3-3-|
|
|-------------------|-------------------|
|-----1-------1-----|-1---1-0-(0)-1-0-1-|
|-2-0---0-(0)---0-0-|---0---------------|
|-------------------|-------------------|
|-------------------|-------------------|
|-------------------|-------------------|
|
|-1-1-1-0-(0)-0-0-0-|-0-0-0-3-(3)-3-3-3-|
|-1-1-1-1-(1)-1-1-1-|-1-1-1-0-(0)-0-0-0-|
|-2-2-2-0-(0)-0-0-0-|-2-2-2-0-(0)-0-0-0-|
|-3-3-3-2-(2)-2-2-2-|-2-2-2-0-(0)-0-0-0-|
|-3-3-3-3-(3)-3-3-3-|-0-0-0-------------|
|-------------------|-------3-(3)-3-3-3-|


|-------------------|-------------------|
|-------------------|-------------------|
|-------------------|-------------------|
|-------5--5--5-5-5-|-------------------|
|-3-3-3-3--3--3-3-3-|-7-7-7-5--5--5-5-5-|
|-1-1-1-------------|-5-5-5-3--3--3-3-3-|
|
|-------------------|-------------------|
|-----1-------1-----|-1---1-0-(0)-1-0-1-|
|-2-0---0-(0)---0-0-|---0---------------|
|-------------------|-------------------|
|-------------------|-------------------|
|-------------------|-------------------|
|
|-1-1-1-0-(0)-0-0-0-|-0-0-0-3-(3)-3-3-3-|
|-1-1-1-1-(1)-1-1-1-|-1-1-1-0-(0)-0-0-0-|
|-2-2-2-0-(0)-0-0-0-|-2-2-2-0-(0)-0-0-0-|
|-3-3-3-2-(2)-2-2-2-|-2-2-2-0-(0)-0-0-0-|
|-3-3-3-3-(3)-3-3-3-|-0-0-0-------------|
|-------------------|-------3-(3)-3-3-3-|


|-------------------|-------------------|
|-------------------|-------------------|
|-------------------|-------------------|
|-------5--5--5-5-5-|-------------------|
|-3-3-3-3--3--3-3-3-|-7-7-7-5--5--5-5-5-|
|-1-1-1-------------|-5-5-5-3--3--3-3-3-|
|
|-------------------|-------------------|
|-----1-------1-----|-1---1-0-(0)-1-0-1-|
|-2-0---0-(0)---0-0-|---0---------------|
|-------------------|-------------------|
|-------------------|-------------------|
|-------------------|-------------------|
|
|-1-1-1-0-(0)-0-0-0-|-0-0-0-3-(3)-3-3-3-|
|-1-1-1-1-(1)-1-1-1-|-1-1-1-0-(0)-0-0-0-|
|-2-2-2-0-(0)-0-0-0-|-2-2-2-0-(0)-0-0-0-|
|-3-3-3-2-(2)-2-2-2-|-2-2-2-0-(0)-0-0-0-|
|-3-3-3-3-(3)-3-3-3-|-0-0-0-------------|
|-------------------|-------3-(3)-3-3-3-|


|-------------------|-------------------|
|-------------------|-------------------|
|-------------------|-------------------|
|-------5--5--5-5-5-|-------------------|
|-3-3-3-3--3--3-3-3-|-7-7-7-5--5--5-5-5-|
|-1-1-1-------------|-5-5-5-3--3--3-3-3-|
|
|-------------------|-------------------|
|-----1-------1-----|-1---1-0-(0)-1-0-1-|
|-2-0---0-(0)---0-0-|---0---------------|
|-------------------|-------------------|
|-------------------|-------------------|
|-------------------|-------------------|
|
|-1-1-1-0-(0)-0-0-0-|-0-0-0-3-(3)-3-3-3-|
|-1-1-1-1-(1)-1-1-1-|-1-1-1-0-(0)-0-0-0-|
|-2-2-2-0-(0)-0-0-0-|-2-2-2-0-(0)-0-0-0-|
|-3-3-3-2-(2)-2-2-2-|-2-2-2-0-(0)-0-0-0-|
|-3-3-3-3-(3)-3-3-3-|-0-0-0-------------|
|-------------------|-------3-(3)-3-3-3-|


|-------------------|-------------------|
|-------------------|-------------------|
|-------------------|-------------------|
|-------5--5--5-5-5-|-------------------|
|-3-3-3-3--3--3-3-3-|-7-7-7-5--5--5-5-5-|
|-1-1-1-------------|-5-5-5-3--3--3-3-3-|
|
|-------------------|-------------------|
|-----1-------1-----|-1---1-0-(0)-1-0-1-|
|-2-0---0-(0)---0-0-|---0---------------|
|-------------------|-------------------|
|-------------------|-------------------|
|-------------------|-------------------|
|
|-1-1-1-0-(0)-0-0-0-|-0-0-0-3-(3)-3-3-3-|
|-1-1-1-1-(1)-1-1-1-|-1-1-1-0-(0)-0-0-0-|
|-2-2-2-0-(0)-0-0-0-|-2-2-2-0-(0)-0-0-0-|
|-3-3-3-2-(2)-2-2-2-|-2-2-2-0-(0)-0-0-0-|
|-3-3-3-3-(3)-3-3-3-|-0-0-0-------------|
|-------------------|-------3-(3)-3-3-3-|


|-------------------|-------------------|
|-------------------|-------------------|
|-------------------|-------------------|
|-------5--5--5-5-5-|-------------------|
|-3-3-3-3--3--3-3-3-|-7-7-7-5--5--5-5-5-|
|-1-1-1-------------|-5-5-5-3--3--3-3-3-|
|
|-------------------|-------------------|
|-----1-------1-----|-1---1-0-(0)-1-0-1-|
|-2-0---0-(0)---0-0-|---0---------------|
|-------------------|-------------------|
|-------------------|-------------------|
|-------------------|-------------------|
|
|-1-1-1-0-(0)-0-0-0-|-0-0-0-3-(3)-3-3-3-|
|-1-1-1-1-(1)-1-1-1-|-1-1-1-0-(0)-0-0-0-|
|-2-2-2-0-(0)-0-0-0-|-2-2-2-0-(0)-0-0-0-|
|-3-3-3-2-(2)-2-2-2-|-2-2-2-0-(0)-0-0-0-|
|-3-3-3-3-(3)-3-3-3-|-0-0-0-------------|
|-------------------|-------3-(3)-3-3-3-|


|-------------------|-------------------|
|-------------------|-------------------|
|-------------------|-------------------|
|-------5--5--5-5-5-|-------------------|
|-3-3-3-3--3--3-3-3-|-7-7-7-5--5--5-5-5-|
|-1-1-1-------------|-5-5-5-3--3--3-3-3-|
|
|-------------------|-------------------|
|-----1-------1-----|-1---1-0-(0)-1-0-1-|
|-2-0---0-(0)---0-0-|---0---------------|
|-------------------|-------------------|
|-------------------|-------------------|
|-------------------|-------------------|
|
|-1-1-1-0-(0)-0-0-0-|-0-0-0-3-(3)-3-3-3-|
|-1-1-1-1-(1)-1-1-1-|-1-1-1-0-(0)-0-0-0-|
|-2-2-2-0-(0)-0-0-0-|-2-2-2-0-(0)-0-0-0-|
|-3-3-3-2-(2)-2-2-2-|-2-2-2-0-(0)-0-0-0-|
|-3-3-3-3-(3)-3-3-3-|-0-0-0-------------|
|-------------------|-------3-(3)-3-3-3-|


|-------------------|-------------------|
|-------------------|-------------------|
|-------------------|-------------------|
|-------5--5--5-5-5-|-------------------|
|-3-3-3-3--3--3-3-3-|-7-7-7-5--5--5-5-5-|
|-1-1-1-------------|-5-5-5-3--3--3-3-3-|
|
|-------------------|-------------------|
|-----1-------1-----|-1---1-0-(0)-1-0-1-|
|-2-0---0-(0)---0-0-|---0---------------|
|-------------------|-------------------|
|-------------------|-------------------|
|-------------------|-------------------|
|
|-1-1-1-0-(0)-0-0-0-|-0-0-0-3-(3)-3-3-3-|
|-1-1-1-1-(1)-1-1-1-|-1-1-1-0-(0)-0-0-0-|
|-2-2-2-0-(0)-0-0-0-|-2-2-2-0-(0)-0-0-0-|
|-3-3-3-2-(2)-2-2-2-|-2-2-2-0-(0)-0-0-0-|
|-3-3-3-3-(3)-3-3-3-|-0-0-0-------------|
|-------------------|-------3-(3)-3-3-3-|


|-------------------|-------------------|
|-------------------|-------------------|
|-------------------|-------------------|
|-------5--5--5-5-5-|-------------------|
|-3-3-3-3--3--3-3-3-|-7-7-7-5--5--5-5-5-|
|-1-1-1-------------|-5-5-5-3--3--3-3-3-|
|
|-------------------|-------------------|
|-----1-------1-----|-1---1-0-(0)-1-0-1-|
|-2-0---0-(0)---0-0-|---0---------------|
|-------------------|-------------------|
|-------------------|-------------------|
|-------------------|-------------------|
|
|-1-1-1-0-(0)-0-0-0-|-0-0-0-3-(3)-3-3-3-|
|-1-1-1-1-(1)-1-1-1-|-1-1-1-0-(0)-0-0-0-|
|-2-2-2-0-(0)-0-0-0-|-2-2-2-0-(0)-0-0-0-|
|-3-3-3-2-(2)-2-2-2-|-2-2-2-0-(0)-0-0-0-|
|-3-3-3-3-(3)-3-3-3-|-0-0-0-------------|
|-------------------|-------3-(3)-3-3-3-|


|-------------------|-------------------|
|-------------------|-------------------|
|-------------------|-------------------|
|-------5--5--5-5-5-|-------------------|
|-3-3-3-3--3--3-3-3-|-7-7-7-5--5--5-5-5-|
|-1-1-1-------------|-5-5-5-3--3--3-3-3-|
|
|-------------------|-------------------|
|-----1-------1-----|-1---1-0-(0)-1-0-1-|
|-2-0---0-(0)---0-0-|---0---------------|
|-------------------|-------------------|
|-------------------|-------------------|
|-------------------|-------------------|
|
|-1-1-1-0-(0)-0-0-0-|-0-0-0-3-(3)-3-3-3-|
|-1-1-1-1-(1)-1-1-1-|-1-1-1-0-(0)-0-0-0-|
|-2-2-2-0-(0)-0-0-0-|-2-2-2-0-(0)-0-0-0-|
|-3-3-3-2-(2)-2-2-2-|-2-2-2-0-(0)-0-0-0-|
|-3-3-3-3-(3)-3-3-3-|-0-0-0-------------|
|-------------------|-------3-(3)-3-3-3-|


|-------------------|-------------------|
|-------------------|-------------------|
|-------------------|-------------------|
|-------5--5--5-5-5-|-------------------|
|-3-3-3-3--3--3-3-3-|-7-7-7-5--5--5-5-5-|
|-1-1-1-------------|-5-5-5-3--3--3-3-3-|
|
|-------------------|-------------------|
|-----1-------1-----|-1---1-0-(0)-1-0-1-|
|-2-0---0-(0)---0-0-|---0---------------|
|-------------------|-------------------|
|-------------------|-------------------|
|-------------------|-------------------|
|
|-1-1-1-0-(0)-0-0-0-|-0-0-0-3-(3)-3-3-3-|
|-1-1-1-1-(1)-1-1-1-|-1-1-1-0-(0)-0-0-0-|
|-2-2-2-0-(0)-0-0-0-|-2-2-2-0-(0)-0-0-0-|
|-3-3-3-2-(2)-2-2-2-|-2-2-2-0-(0)-0-0-0-|
|-3-3-3-3-(3)-3-3-3-|-0-0-0-------------|
|-------------------|-------3-(3)-3-3-3-|


|-------------------|-------------------|
|-------------------|-------------------|
|-------------------|-------------------|
|-------5--5--5-5-5-|-------------------|
|-3-3-3-3--3--3-3-3-|-7-7-7-5--5--5-5-5-|
|-1-1-1-------------|-5-5-5-3--3--3-3-3-|
|
|-------------------|-------------------|
|-----1-------1-----|-1---1-0-(0)-1-0-1-|
|-2-0---0-(0)---0-0-|---0---------------|
|-------------------|-------------------|
|-------------------|-------------------|
|-------------------|-------------------|
|
|-1-1-1-0-(0)-0-0-0-|-0-0-0-3-(3)-3-3-3-|
|-1-1-1-1-(1)-1-1-1-|-1-1-1-0-(0)-0-0-0-|
|-2-2-2-0-(0)-0-0-0-|-2-2-2-0-(0)-0-0-0-|
|-3-3-3-2-(2)-2-2-2-|-2-2-2-0-(0)-0-0-0-|
|-3-3-3-3-(3)-3-3-3-|-0-0-0-------------|
|-------------------|-------3-(3)-3-3-3-|


|-------------------|-------------------|
|-------------------|-------------------|
|-------------------|-------------------|
|-------5--5--5-5-5-|-------------------|
|-3-3-3-3--3--3-3-3-|-7-7-7-5--5--5-5-5-|
|-1-1-1-------------|-5-5-5-3--3--3-3-3-|
|
|-------------------|-------------------|
|-----1-------1-----|-1---1-0-(0)-1-0-1-|
|-2-0---0-(0)---0-0-|---0---------------|
|-------------------|-------------------|
|-------------------|-------------------|
|-------------------|-------------------|
|
|-1-1-1-0-(0)-0-0-0-|-0-0-0-3-(3)-3-3-3-|
|-1-1-1-1-(1)-1-1-1-|-1-1-1-0-(0)-0-0-0-|
|-2-2-2-0-(0)-0-0-0-|-2-2-2-0-(0)-0-0-0-|
|-3-3-3-2-(2)-2-2-2-|-2-2-2-0-(0)-0-0-0-|
|-3-3-3-3-(3)-3-3-3-|-0-0-0-------------|
|-------------------|-------3-(3)-3-3-3-|


|-------------------|-------------------|
|-------------------|-------------------|
|-------------------|-------------------|
|-------5--5--5-5-5-|-------------------|
|-3-3-3-3--3--3-3-3-|-7-7-7-5--5--5-5-5-|
|-1-1-1-------------|-5-5-5-3--3--3-3-3-|
|
|-------------------|-------------------|
|-----1-------1-----|-1---1-0-(0)-1-0-1-|
|-2-0---0-(0)---0-0-|---0---------------|
|-------------------|-------------------|
|-------------------|-------------------|
|-------------------|-------------------|
|
|-1-1-1-0-(0)-0-0-0-|-0-0-0-3-(3)-3-3-3-|
|-1-1-1-1-(1)-1-1-1-|-1-1-1-0-(0)-0-0-0-|
|-2-2-2-0-(0)-0-0-0-|-2-2-2-0-(0)-0-0-0-|
|-3-3-3-2-(2)-2-2-2-|-2-2-2-0-(0)-0-0-0-|
|-3-3-3-3-(3)-3-3-3-|-0-0-0-------------|
|-------------------|-------3-(3)-3-3-3-|


|-------------------|-------------------|
|-------------------|-------------------|
|-------------------|-------------------|
|-------5--5--5-5-5-|-------------------|
|-3-3-3-3--3--3-3-3-|-7-7-7-5--5--5-5-5-|
|-1-1-1-------------|-5-5-5-3--3--3-3-3-|
|
|-------------------|-------------------|
|-----1-------1-----|-1---1-0-(0)-1-0-1-|
|-2-0---0-(0)---0-0-|---0---------------|
|-------------------|-------------------|
|-------------------|-------------------|
|-------------------|-------------------|
|
|-1-1-1-0-(0)-0-0-0-|-0-0-0-3-(3)-3-3-3-|
|-1-1-1-1-(1)-1-1-1-|-1-1-1-0-(0)-0-0-0-|
|-2-2-2-0-(0)-0-0-0-|-2-2-2-0-(0)-0-0-0-|
|-3-3-3-2-(2)-2-2-2-|-2-2-2-0-(0)-0-0-0-|
|-3-3-3-3-(3)-3-3-3-|-0-0-0-------------|
|-------------------|-------3-(3)-3-3-3-|


|-------------------|-------------------|
|-------------------|-------------------|
|-------------------|-------------------|
|-------5--5--5-5-5-|-------------------|
|-3-3-3-3--3--3-3-3-|-7-7-7-5--5--5-5-5-|
|-1-1-1-------------|-5-5-5-3--3--3-3-3-|
|
|-------------------|-------------------|
|-----1-------1-----|-1---1-0-(0)-1-0-1-|
|-2-0---0-(0)---0-0-|---0---------------|
|-------------------|-------------------|
|-------------------|-------------------|
|-------------------|-------------------|
|
|-1-1-1-0-(0)-0-0-0-|-0-0-0-3-(3)-3-3-3-|
|-1-1-1-1-(1)-1-1-1-|-1-1-1-0-(0)-0-0-0-|
|-2-2-2-0-(0)-0-0-0-|-2-2-2-0-(0)-0-0-0-|
|-3-3-3-2-(2)-2-2-2-|-2-2-2-0-(0)-0-0-0-|
|-3-3-3-3-(3)-3-3-3-|-0-0-0-------------|
|-------------------|-------3-(3)-3-3-3-|


|-------------------|-------------------*|
|-------------------|-------------------*|
|-------------------|-------------------*|
|-------5--5--5-5-5-|-------------------*|
|-3-3-3-3--3--3-3-3-|-7-7-7-5--5--5-5-5-*|
|-1-1-1-------------|-5-5-5-3--3--3-3-3-*|
|
|-------------------|-------------------*|
|-----1-------1-----|-1---1-0-(0)-1-0-1-*|
|-2-0---0-(0)---0-0-|---0---------------*|
|-------------------|-------------------*|
|-------------------|-------------------*|
|-------------------|-------------------*|
|
|-1-1-1-0-(0)-0-0-0-|-0-0-0-3-(3)-3-3-3-*|
|-1-1-1-1-(1)-1-1-1-|-1-1-1-0-(0)-0-0-0-*|
|-2-2-2-0-(0)-0-0-0-|-2-2-2-0-(0)-0-0-0-*|
|-3-3-3-2-(2)-2-2-2-|-2-2-2-0-(0)-0-0-0-*|
|-3-3-3-3-(3)-3-3-3-|-0-0-0-------------*|
|-------------------|-------3-(3)-3-3-3-*|
Comments