Tom Petty - Its Good To Be King Chords & Tabs

 

Its Good To Be King Chords & Tabs

Tom Petty Chords & Tabs

Version: 2 Type: Tab 0 ratings
1 star 2 stars 3 stars 4 stars 5 stars
comments

Its Good To Be King Tab

it's real easy boys and girls
just one string


E-7-5-3-5--7-5-3-0--7-5-3-5--7-5-3-0----------------|
B---------------------------------------------------|
G---------------------------------------------------|
D---------------------------------------------------|
A---------------------------------------------------|
E---------------------------------------------------|
[ Tab from: http://www.guitartabs.cc/tabs/t/tom_petty/its_good_to_be_king_tab_ver_2.html ]
The rest of the song consists of the following chords.
I however don't know which order
E------------2---2---2------------------------------------|
B-------1----3---2---2--3---------------------------------|
G--1----2----2----------2---------------------------------|
D--2----2------------2--2---------------------------------|
A--2----0--------2---3--0---------------------------------|
E--o-------------3----------------------------------------|

Thats it. heard twice in the song the intro and near the end.

Tabbed by:slugger
Comments