Tom Petty - Its Good To Be King Chords & Tabs

 

Its Good To Be King Chords & Tabs

Tom Petty Chords & Tabs

Version: 1 Type: Tab 0 ratings
1 star 2 stars 3 stars 4 stars 5 stars
comments

Its Good To Be King Tab

   
i know this is just the solo, but i've surfed the net for a long time without finding
it transcribed and even though some of this is probably off it should help some of the
better guitarists out there at least get started

---------------------------------------------------------------------------- 
Tom Petty - It's Good to be King solo
----------------------------------------------------------------------------
tabbed by: Chris Helms
E-mail: chrisxinfinity@alltel.net

standard tuning
| /  slide up
| \  slide down
| h  hammer-on
| p  pull-off
| ~  vibrato
| +  harmonic
| x  Mute note
| ^  bend
| `  tremelo

[ Tab from: http://www.guitartabs.cc/tabs/t/tom_petty/its_good_to_be_king_tab.html ]
e|-------------------------------------------------------------------------|
B|-----------------------------------------------------15----17p15----15h17|
G|-14^p12------14/16--16\14-14\12-12/14-14/16-14-14/16----16-------16------|
D|---------14--------------------------------------------------------------|
A|-------------------------------------------------------------------------|
E|-------------------------------------------------------------------------|
   (let ring...)     
e|-------------------------------------------------------------------------|
B|-17``````------17-17^--15-12-15p12---------------------------------------|
G|-----------------------------------14-12--12h14p1-------------12----12h14|
D|--------------------------------------------------14-12-12h14----14------|
A|-------------------------------------------------------------------------|
E|-------------------------------------------------------------------------|

e|-------------------------------------------------------------------------|
B|-------------------------------------------------------------------------|
G|-14^-12------------------------------------------------------------------|
D|--------14---------------------------------------------------------------|
A|-------------------------------------------------------------------------|
E|-------------------------------------------------------------------------|

and thats it, or pretty close. the timing is pretty easy to figure out if you've heard
the song, just insert it where you always see "solo over verse chords" and have fun
kids!!
Comments