Tom Petty - I Wont Back Down Chords & Tabs

 

I Wont Back Down Chords & Tabs

Tom Petty Chords & Tabs

Version: 1 Type: Bass Tab 0 ratings
1 star 2 stars 3 stars 4 stars 5 stars
comments

I Wont Back Down Bass Tab

TOM PETTY & THE HEARTBREAKERS - "I Won't Back Down" - Bass Tab

Common time(4/4)
Standard tuning(EADG)

INTRO:
|------------------|------------------|
|*-2-2-2-2---------|-----------------*|
|*---------5-5-5-5-|-----------------*| (x2)
|------------------|-3-3-3-3-3-3-3-3--|
   1 & 2 & 3 & 4 &   1 & 2 & 3 & 4 &

VERSE 1:
                                  (x2)
|------------------|------------------|-----------------|
|*-2-2-2-2---------|-----------------*|-2-2-2-2---------|
|*---------5-5-5-5-|-----------------*|---------5-5-5-5-|
|------------------|-3-3-3-3-3-3-3-3--|-----------------|
   1 & 2 & 3 & 4 &   1 & 2 & 3 & 4 &    1 & 2 & 3 & 4 &

|-----------------|-----------------|-----------------|
|-----------------|-2-2-2-2---------|-----------------|
|-3-3-3-3-3-3-3-3-|---------5-5-5-5-|-----------------|
|-----------------|-----------------|-3-3-3-3-3-3-3-3-|
  1 & 2 & 3 & 4 &   1 & 2 & 3 & 4 &   1 & 2 & 3 & 4 &
[ Tab from: http://www.guitartabs.cc/tabs/t/tom_petty/i_wont_back_down_btab.html ]
VERSE 2,3 & SOLO:
                                  (x2)
|------------------|------------------|-----------------|
|*-2-2-2-2---------|-----------------*|-2-2-2-2---------|
|*---------5-5-5-5-|-----------------*|---------5-5-5-5-|
|------------------|-3-3-3-3-3-3-3-3--|-----------------|
   1 & 2 & 3 & 4 &   1 & 2 & 3 & 4 &    1 & 2 & 3 & 4 &

|-----------------|-----------------|-----------------|
|-----------------|-2-2-2-2---------|-----------------|
|-3-3-3-3-3-3-3-3-|---------5-5-5-5-|-----------------|
|-----------------|-----------------|-3-3-3-3-3-3-3-3-|
  1 & 2 & 3 & 4 &   1 & 2 & 3 & 4 &   1 & 2 & 3 & 4 &

|-----------------|---------------|
|-2-2-2-2---------|---------------|
|---------5-5-5-5-|---------3-----|
|-----------------|-3-3-3-3---3---|
  1 & 2 & 3 & 4 &   1 & 2 & 3 & 4

CHORUS:
                                (x2)
|------------------|------------------|
|*-----------------|-----------------*|
|*-3-3-3-3-3---3---|-5-5-5-5-5---5---*|
|------------3---3-|-----------3---3--|
   1 & 2 & 3 & 4 &   1 & 2 & 3 & 4 &

                                  (x2)
|------------------|------------------|
|*-2-2-2-2---------|-----------------*|
|*---------5-5-5-5-|-----------------*| 
|------------------|-3-3-3-3-3-3-3-3--|
   1 & 2 & 3 & 4 &   1 & 2 & 3 & 4 &

By: Johari Taylor
E-mail: viking@powerup.com.au
Comments