Tom Petty - American Girl Chords & Tabs

 

American Girl Chords & Tabs

Tom Petty Chords & Tabs

Version: 1 Type: Bass Tab 0 ratings
1 star 2 stars 3 stars 4 stars 5 stars
comments

American Girl Bass Tab

   
Song: American Girl
Artist: Tom Petty
Album: Greatest Hits
Tabbed by: Jerry Beach (jerry@beachsweb.com)
http://www.beachsweb.com
#####     Keep it strong!  Keep it real!     #####

Tuned in E

This is a fun bass line to play, or to just jam out with

Intro

G|-9/11----9----7----9----9/11----9----7----9-----------------------------|
D|------------------------------------------------------------------------|
A|------------------------------------------------------------------------|
D|------------------------------------------------------------------------|


Verse

G|------------------------------------------------------------------------|
D|-000---------------------000--------------------------------------------|
A|------------------------------------------------------------------------|
D|-------000---333---555---------000---333---555---555--------------------|
[ Tab from: http://www.guitartabs.cc/tabs/t/tom_petty/american_girl_btab.html ]
G|------------------------------------------------------------------------|
D|-000--------------------------------------------------------------------|
A|------------------------------------------------------------------------|
D|-------333---000---555---555---555---555--------------------------------|
		

Bridge


G|------------------------------------------------------------------------|
D|-------------------------------------000---000--------------------------|
A|-------000---555---222--------------------------------------------------|
D|-333---------------------333---555--------------------------------------|

Play Verse again
Play Bridge again

Part B

G|------------------------------------------------------------------------|
D|------------------------------------------------------------------------|
A|---------005----------005----------005-----------000---5---5---5---5----|
D|-333--3h4-----333--3h4-----333--3h4-----333--3h4------------------------|


Break Down

G|------------------------------------------------------------------------|
D|-0--------------------------0-------------------------------------------|
A|------------------------------------------------------------------------|
D|-------0------3------5-------------0------3------5----------------------|
Comments